Web Analytics
Jump to content

VARM OPP


tHeMuTh|n
 Share

Recommended Posts

Dette er bare et lite tips:

VARM OPP

hehe

jeg vet at veldig få faktisk gjør det. Det lønner seg å varme opp fingrene før både bandøving, gitarøving og spillejobber. For det første så myker du opp ledd og muskler;du setter på plass kordinasjonen; og sist og ikke minst så blir du mentalt innstilt på at du skal spille. Det har faktisk MYE å si. Jo bedre konsentrer du er, jo bedre øver du. Jo bedre oppvarmet du er, jo mindre tid bruker du på å bli varm og myk MENS du øver, ergo øver du også mer efffektivt

Lag gjerne egne oppvarminsøvelser selv. F.eks slik:

-------------------------------------------------------------8-9-10-11-

-------------------------------------------------8-11-10-9-------------

-------------------------------------8-9-10-11-------------------------

-------------------------8-11-10-9-------------------------------------

-------------8-9-10-11-------------------------------------------------

-8-11-10-9-------------------------------------------------------------

Kan jo være interessant å vite hvor mange som egentlig varmer opp her. Hvem gjør det?

Link to comment
Share on other sites

gir man bort lillefingeren skal man plutselig ha hele hånda :)

Vel... et TIPS:

en fin øvelse som også kan brukes til oppvarming er en øvelse i posisjonskifte:

-1-2-3-4-5-6-7-8-9-10-11-12--

-------------------------------------

-------------------------------------

-------------------------------------

-------------------------------------

-------------------------------------

På 1.bånd bruker du pekefiner, 2.bånd langfinger, 3.bånd ringfinger, 4.bånd lillefinger,. Så skifter du posisjon ved å flytte hånda slik at pekefinger spiller 5.bånd, langfinger 6.bånd osv

Spill dette opp og ned halsen. Poenget er at når du skifter fra lillefinger til pekefinger (4.-5./8.-9. bånd) så skal man ikke HØRE noe forskjell. Man skal ikke merke at du har skiftet posisjon.

TRIKS: bruk øynene. Øynene skal ligge et skritt FORAN fingrene dine. Altså, når du skal skifte fra 4.streng lillefinger til 5.streng pekefinger så skal øynene dine se på 5 bånd FØR du skifter

Dette er både en fin øvelse og en fin oppvarming

Link to comment
Share on other sites

Nå jeg varmer opp spiller jeg somregel dur, pentatoniske og kromatiske skalaer rundt omkring på halsen, funker som bare det, ellers har jeg funnet ut at jeg også må la ampen varme seg i minst 20min før den kan brukes, ettersom den lydre drit når den er kald :)

Link to comment
Share on other sites

Dere glemte (tror jeg) å nevne at man forebygger seriøse skader som scenebetennelse ...

En annen god øvelse er den som heter edderkoppen

-------------------------------------------

-------------------------------------------

-------------------------------------------

------10-----7-------9-------------------

--7-------8------10----------------------

-------------------------------------------

Dette er en veldig god oppvarmings øvelse , fordi du strekker og beveger litt på henda , men det er først etterhvert . for når du har spilt den som står der litt , så flytter du det som der er g-strengen , de tonene flytter du en streng ned , så du får en streng i mellom ...

Og neste runde strekker du fra d til a streng , og så helt til slutt kommer du da til de to E-ene , det er strekk så det holder , og ganske vanskelig ..

Gadd ikke å tegne opp mange , håper dere skjønte det...

Viktig tips om å varme opp er å starte sinnsykt sakte ...

hvis ikke har det ikke noe for seg ..

Nilsefix

Link to comment
Share on other sites

Create an account or sign in to comment

You need to be a member in order to leave a comment

Create an account

Sign up for a new account in our community. It's easy!

Register a new account

Sign in

Already have an account? Sign in here.

Sign In Now
 Share

  • Recently Browsing   0 members

    No registered users viewing this page.


×
×
  • Create New...

Important Information

By using this site, you agree to our Terms of Use.