Gå til innhold
tHeMuTh|n

VARM OPP

Anbefalte innlegg

vel.. jeg varmer sjelden opp, men jeg har hørt at det er lurt veldig lenge:P

men knekker fingrer og herjer...:P desverre... mer skadelig enn røyking..;)

Del dette innlegget


Lenke til innlegg
Del på andre sider
Steve Morse snakket lenge og varmt om det å varme opp da han var på Imerslund igår, blant annet for å forhindre belastningsskader som Carpal Tunnel Syndrome (som han sliter med), senebetennelse, og lignende.

Startet med følgende kromatiske figur:



e|-------------------------------1-2-3-4-3-2-1-------------------------------|

B|-------------------------1-2-3---------------3-2-1-------------------------|

G|-------------------1-2-3---------------------------3-2-1-------------------|

D|-------------1-2-3---------------------------------------3-2-1-------------|

A|-------1-2-3---------------------------------------------------3-2-1-------|

E|-1-2-3---------------------------------------------------------------3-2-1-|

Poenget er å ha tre toner pr streng, bortsett fra 1. streng, slik at anslagsretningen skifter for hvert strengehopp.

God idé med tre noter per streng - "4 per streng"-øvelser er drepen på høyrehåndsteknikken; du blir vant til samme anslagsretning for hver streng.

Jeg synes derimot at den øvelsen der er helt idiotisk med tanke på venstrehånden. ÉN eneste note til lillefingeren? Spill heller en vanlig "3-noter-per-streng" skala, og ta i bruk alle fingrene på venstrehånden. Dessuten er skalaer mye mer brukbare i ordentlige spillesituasjoner. Atonale øvelser er ubrukelige i 99% av alle tilfeller, og kan nesten alltid tilpasses musikalsk brukbare mønstre istedet (skalaer, arpeggioer, etc.)

Del dette innlegget


Lenke til innlegg
Del på andre sider

Pleier å varme opp med Erotomania jeg, grei og fin låt uten de aller største anstrengelsene, bortsett fra et par steder, som de første gangene hoppes elegant over.

Del dette innlegget


Lenke til innlegg
Del på andre sider

Bruker også Erotomania for å varme opp.. Spiller den 2 ganger før jeg gir meg ut på siste soloen, oser senebetennelse av den.. hehe

Del dette innlegget


Lenke til innlegg
Del på andre sider
Pleier å varme opp med Erotomania jeg, grei og fin låt uten de aller største anstrengelsene, bortsett fra et par steder, som de første gangene hoppes elegant over.

Argh... vonde minner. :?

Spilte den sangen live med bandet mitt for et år siden. Var så nervøs at da den siste delen kom (rask string skipping), og resten av bandet stoppet for å la meg spille soloen alene, begynte hendene mine å skjelve såpass kraftig at jeg ikke kunne fortsette. Flaut som f*aen, og mitt første møte med sceneskrekk...

Del dette innlegget


Lenke til innlegg
Del på andre sider

hehehe, oh man! det er fen det verste som kan skje! Føler med deg.. Kommer man ut av den soloen er det vanskelig å hive seg inn igjen uten at det låter ræva! Har ikke spilt den live da.. Men har skjedd et par ganger på øving.

Del dette innlegget


Lenke til innlegg
Del på andre sider
Gjest

Veldig nyttig tråd!!

Men ikke glem å ta en liten pause med det samme det gjør vondt og strekk ut etterpå...

Del dette innlegget


Lenke til innlegg
Del på andre sider

Varmelitt opp med en sånn klemmegreie. Funker fint. Spiller også fortere og lettere om jeg har tatt noen harde, statiske chorder først.

Del dette innlegget


Lenke til innlegg
Del på andre sider



e|-------------------------------7h8h10-10-8-7-------------------------------|

B|-------------------------6h7h9---------------9-7-6-------------------------|

G|-------------------4h5h7---------------------------7-5-4-------------------|

D|-------------3h4h6---------------------------------------6-4-3-------------|

A|-------2h3h5---------------------------------------------------5-3-2-------|

E|-1h2h4---------------------------------------------------------------4-2-1-|



e|-------------------------------7h9h10-10-9-7-------------------------------|

B|-------------------------6h8h9---------------9-8-6-------------------------|

G|-------------------4h6h7---------------------------7-6-4-------------------|

D|-------------3h5h6---------------------------------------6-5-3-------------|

A|-------2h4h5---------------------------------------------------5-4-2-------|

E|-1h3h4---------------------------------------------------------------4-3-1-|

Denne ble jeg fort varm av!

Del dette innlegget


Lenke til innlegg
Del på andre sider

Jeg pleier ikke å bruke noen oppvarmings øvelser. Jeg bare begynner med no rolige sanger eller riff osv.

Del dette innlegget


Lenke til innlegg
Del på andre sider

her og...men det er ikke så ofte jeg føler behov for å varme opp...

Del dette innlegget


Lenke til innlegg
Del på andre sider

Når jeg bare sitter på rommet og spiller for meg selv så er det dårlig med oppvarming. Oppvarmingen jeg tar hvis jeg oppvarmer går slik:

---------------1234-4321------------------

----------1234------------4321------------

-----1234-----------------------4321------

1234----------------------------------4321

har ikke lest så mye gjennom tråden så denne metoden er sikkert nevnt.

når jeg varmer opp til øving så pleier jeg som regel og varme opp med alkohol og en god-film som f.eks. vulgar videos from hell, superjoint ritual, eller war at the warfield..

man blir ganske psyched!

...første post og greier...

Del dette innlegget


Lenke til innlegg
Del på andre sider

Haha, den du brukte på øving var spenstig :mrgreen:

Og velkommen til forumet :wink:

Håper du finner det like nyttig som meg :mrgreen:

Del dette innlegget


Lenke til innlegg
Del på andre sider

Opprett en konto eller logg inn for å kommentere

Du må være et medlem for å kunne skrive en kommentar

Opprett konto

Det er enkelt å melde seg inn for å starte en ny konto!

Start en konto

Logg inn

Har du allerede en konto? Logg inn her.

Logg inn nå

  • Hvem er aktive   0 medlemmer

    Ingen innloggede medlemmer aktive

×
×
  • Opprett ny...

Viktig informasjon

Dette nettstedet bruker cookies for å gi deg en best mulig brukeropplevelse Bruksvilkår.