Gå til innhold
spz

Sweeping arpeggios

Anbefalte innlegg

Hei folkens,

Skrev et par enkle øvelser for sweeping en liten stund siden og tenkte jeg like godt kunne dele de med dere, kanskje noen kunne ha bruk for dem :)

Axercise #1: Simple Sweeping
¨¨¨¨¨¨¨¨¨¨¨

Remember each note should ring clear and on it's own!


Legend:
^ = Downstroke
v = Upstroke
p = Pulloff
h = Hammeron


Fig. i:
¨¨¨¨¨¨
^ ^ ^ ^ ^ v v v v v
|-----------------7-12p7--------------|
|--------------8----------8-----------|
.|-----------9----------------9--------|.
.|--------9----------------------9-----|. x2
|--7h10----------------------------10-|
|-------------------------------------|



Fig. ii:
¨¨¨¨¨¨¨
^ ^ ^ ^ ^ v v v v v
|----------------10-15p10-------------|
|-------------12----------12----------|
.|----------12----------------12-------|.
.|-------12----------------------12----|. x2
|-10h14----------------------------14-|
|-------------------------------------|


Fig. iii:
¨¨¨¨¨¨¨¨
^ ^ ^ ^ ^ ^ v v v v v
|----------------12-17p12-------------|
|-------------13----------13----------|
.|----------14----------------14-------|.
.|-------14----------------------14----|. x2
|-12h15----------------------------15-|
|-------------------------------------|


Fig. iv:
¨¨¨¨¨¨¨
^ ^ ^ ^ ^ v v v v v
|----------------14-19p14-------------|
|-------------16----------16----------|
.|----------16----------------16-------|.
.|-------16----------------------16----|. x2
|-14h18----------------------------18-|
|-------------------------------------|



- by SPZ, 20/02/06

Axercise #2: Simple Sweeping
¨¨¨¨¨¨¨¨¨¨¨

Remember each note should ring clear and on it's own!


Legend:
^ = Downstroke
v = Upstroke
p = Pulloff
h = Hammeron



Fig. i:
¨¨¨¨¨¨
^ ^ ^ ^ ^ v v v ^ ^ v v v ^ ^ v v v v v v
|-------------7-12p7-------7h12p7-------7h12p7----------|
|-----------8--------8---8--------8---8--------8--------|
.|---------9------------9------------9------------9------|.
.|-------9------------------------------------------9----|. x2
|--7h10----------------------------------------------10-|
|-------------------------------------------------------|


Fig. ii:
¨¨¨¨¨¨¨
^ ^ ^ ^ ^ v v v ^ ^ v v v ^ ^ v v v v v
|----------------10-15p10----------10-15p10----------10-15p10-------------|
|-------------12----------12----12----------12----12----------12----------|
.|----------12----------------12----------------12----------------12-------|.
.|-------12----------------------------------------------------------12----|. x2
|-10h14----------------------------------------------------------------14-|
|-------------------------------------------------------------------------|


Fig. iii:
¨¨¨¨¨¨¨¨
^ ^ ^ ^ ^ v v v ^ ^ v v v ^ ^ v v v v v
|----------------12-17p12----------12-17p12----------12-17p12-------------|
|-------------13----------13----13----------13----13----------13----------|
.|----------14----------------14----------------14----------------14-------|.
.|-------14----------------------------------------------------------14----|. x2
|-12h15----------------------------------------------------------------15-|
|-------------------------------------------------------------------------|


Fig. iv:
¨¨¨¨¨¨¨
^ ^ ^ ^ ^ v v v ^ ^ v v v ^ ^ v v v v v
|----------------14-19p14----------14-19p14----------14-19p14-------------|
|-------------16----------16----16----------16----16----------16----------|
.|----------16----------------16----------------16----------------16-------|.
.|-------16----------------------------------------------------------16----|. x2
|-14h18----------------------------------------------------------------18-|
|-------------------------------------------------------------------------|



- by SPZ, 05/03/06

Endret av spz

Del dette innlegget


Lenke til innlegg
Del på andre sider



E|---------------8128-----------------
H|------------10------10-------------
G|----------9------------9------------
D|-------10---------------10---------
A|----12---------------------12------
E|--8---------------------------8-----



E|----117-----------------7117--11107-----------------
H|--------9--------------9------9-------9----------------
G|---------8-----------8------------------107------------
D|----------9---------9-----------------------9-----------
A|------------11---11--------------------------11--------
E|---------------11----------------------------------------

Litt mer avansert en de over, men fine.
Tingen med disse er at de går på alle seks strengene.

Del dette innlegget


Lenke til innlegg
Del på andre sider
Gjest Oscar

tusen takk! dårlig respons, men tror de ordene holder.

Del dette innlegget


Lenke til innlegg
Del på andre sider


Jeg slenger åsså på en liten fin en :)

|---------------3-7/8p7-----------------|
|-------------5--------8----------------|
|---------4h5------------9--------------|
|-------5------------------10-9---------|
|-2/3h7-------------------------10------|
|----------------------------------12p8-|

Del dette innlegget


Lenke til innlegg
Del på andre sider

hvorfor skriver dere ikke hva slags arpeggio det er?

Del dette innlegget


Lenke til innlegg
Del på andre sider

hvorfor skriver dere ikke hva slags arpeggio det er?

regner vell med at de fleste finner ut av det selv.

(kan man helt basic gitar teorie, så er ikke det noe stort problem... kan man derimot ikke simpel teori, så er vell ikke sweep-picka arpeggioer det beste å begynne på ;):P)

Del dette innlegget


Lenke til innlegg
Del på andre sider

Her er figurene jeg bruker for dur- og molltreklanger:

Dur, grunnstilling:

--------------3-7-

------------3----

----------4------

--------5--------

------5----------

-3-7------------

Dur, første omvending:

-----------------7-10-

---------------8------

-------------7--------

-----------9----------

-----5-10------------

--7-------------------

Dur, annen omvending:

--------------------10-15--

-----------------12--------

--------------12----------

-----------12-------------

----10-14----------------

-10-----------------------

Moll, grunnstilling:

--------------3-6-

------------3----

----------3------

--------5--------

------5----------

-3-6------------

Moll, første omvending:

-----------------6-10-

---------------8------

-------------7--------

-----------8----------

-----5-10------------

--6-------------------

Moll, annen omvending:

--------------------10-15--

-----------------11--------

--------------12----------

-----------12-------------

----10-13----------------

-10-----------------------

Endret av aiwass

Del dette innlegget


Lenke til innlegg
Del på andre sider

Flotte svar med bra tillegg av øvelser! Tror det kunne hjulpet enda flere om alle passer på å notere pulls, slides, hammers, fretting (downstroke/upstroke) osv. dog!

aiwas: du kan få monospaced-font og non-whitespace-stripping ved å legge alt av tablatur inni [ code ] tag'en!

Del dette innlegget


Lenke til innlegg
Del på andre sider
Tror det kunne hjulpet enda flere om alle passer på å notere pulls, slides, hammers, fretting (downstroke/upstroke) osv. dog!

...kan bare legge til at jeg bruker economy picking på alt. Ikke noe legato, med mindre jeg prøver å oppnå en viss effekt.

Del dette innlegget


Lenke til innlegg
Del på andre sider

Kult, jeg burde øve mere på å economy pick'e! Blir dette her riktig i forhold til economy picking og hvordan du spiller det?

Dur, grunnstilling:
¨¨¨¨¨¨¨¨¨¨¨¨¨¨¨¨¨¨¨
^ v ^ ^ ^ ^ ^ v
|-------------3-7-|
|-----------3-----|
|---------4-------|
|-------5---------|
|-----5-----------|
|-3-7-------------|



Dur, første omvending:
¨¨¨¨¨¨¨¨¨¨¨¨¨¨¨¨¨¨¨¨¨
^ ^ v ^ ^ ^ ^ v
|--------------7-10-|
|------------8------|
|----------7--------|
|--------9----------|
|---5-10------------|
|-7-----------------|


Dur, annen omvending:
¨¨¨¨¨¨¨¨¨¨¨¨¨¨¨¨¨¨¨¨
^ ^ v ^ ^ ^ ^ v
|-------------------10-15-|
|----------------12-------|
|-------------12----------|
|----------12-------------|
|----10-14----------------|
|-10----------------------|


Moll, grunnstilling:
¨¨¨¨¨¨¨¨¨¨¨¨¨¨¨¨¨¨¨
^ v ^ ^ ^ ^ ^ v
|-------------3-6-|
|-----------3-----|
|---------3-------|
|-------5---------|
|-----5-----------|
|-3-6-------------|


Moll, første omvending:
¨¨¨¨¨¨¨¨¨¨¨¨¨¨¨¨¨¨¨¨¨¨
^ ^ v ^ ^ ^ ^ v
|--------------6-10-|
|------------8------|
|----------7--------|
|--------8----------|
|---5-10------------|
|-6-----------------|


Moll, annen omvending:
¨¨¨¨¨¨¨¨¨¨¨¨¨¨¨¨¨¨¨¨¨
^ ^ v ^ ^ ^ ^ v
|-------------------10-15-|
|----------------11-------|
|-------------12----------|
|----------12-------------|
|----10-13----------------|
|-10----------------------|

Endret av spz

Del dette innlegget


Lenke til innlegg
Del på andre sider

hvorfor skriver dere ikke hva slags arpeggio det er?

Teorifreak *host*

Synes for øvrig du kan pælme ut noen trestrengssweeper og, spz. Så blir det litt lett for de som ikke er så veldig gode enda. Fikk du forresten PM fra meg?

Del dette innlegget


Lenke til innlegg
Del på andre sider

ble såra der gitt...

si meg, er man freak fordi man vil at nybegynner skal vite hvorfor ting passer?

Del dette innlegget


Lenke til innlegg
Del på andre sider

ta og velg deg en skala og lag ut i fra den... er jo kjempe enkelt.... (dere)

Del dette innlegget


Lenke til innlegg
Del på andre sider

Opprett en konto eller logg inn for å kommentere

Du må være et medlem for å kunne skrive en kommentar

Opprett konto

Det er enkelt å melde seg inn for å starte en ny konto!

Start en konto

Logg inn

Har du allerede en konto? Logg inn her.

Logg inn nå

  • Hvem er aktive   0 medlemmer

    Ingen innloggede medlemmer aktive

×
×
  • Opprett ny...

Viktig informasjon

Dette nettstedet bruker cookies for å gi deg en best mulig brukeropplevelse Bruksvilkår.