Web Analytics
Jump to content

Rask hammer-on i Iron Maiden - The Trooper


Bjarte

Recommended Posts

The Trooper av Iron Maiden.

Lead-gitaristen spiller dette med hammer-on flere steder inni sangen:

|------------------7----------------------------------------|
|--8--7h8p7h8p7h8-----8--7h8p7h8p7h8--8-----------8---------|
|----------------------------------------9--9~--7---7--9~---|
|-----------------------------------------------------------|
|-----------------------------------------------------------|
|-----------------------------------------------------------|

Jeg lurer enkelt og greit bare på hvordan han gjør det. Å spille så fort som det er jo umulig, hvertfall av meg. Så kan noen forklare meg hvordan jeg kan få det til? Se den gjerne i Guitar pro (vedleggsfil).

Iron_Maiden___The_Trooper.gp3

Link to comment
Share on other sites

du kan jo forkorte den litt, det merkes ikke:

||-------------------7------------------------------------------||

||8--7h-8p-7h-8------8-7h-8p-7p--8----------8-------------||

||------------------------------------------9--9------7--7--9--||

||---------------------------------------------------------------||

||---------------------------------------------------------------||

||---------------------------------------------------------------||

Bare øv på hammer on og pull offs, så kommer det til å gå til slutt.. bruk gp4\5 spill til, senk tempoet hvis nødvendig. Jobb deg oppover.. :)

Edited by lars_loffen
Link to comment
Share on other sites

Det er nok bare å øve, og trene opp fingrene til å bli raske. Veit ikke om noen annen måte å gjøre det på enn å spille mye hammer-on. Hehe. Dave Murray har en del raskere hammer-on's enn det her da. Akkurat det partiet der får jeg faktisk til. Sikkert noen som har noen treningstips til å få raskere fingre her...

PS! Så ikke innlegget ditt før nå "lars loffen".

Edited by Painkiller
Link to comment
Share on other sites

nei da, er bare å øve flittig, aiwass hadde jo en veldig bra måte å trene opp hammer on/pull offs, send en privat melding til han, eller evt. søk på forumet

Link to comment
Share on other sites

Juks altså ;)

Du bør øve på trille øvelser (trills på engelsk), er nok mange gode slike ute på nettet

denne sangen er jo fin til og øve med..

spill trille-delen (hihi ) med alle fingrene, til du spiller det bra med alle kombinasjoner.

(spill først med pekefinger og langfinger, neste gang med lang/ring og til sist ring / lillef.

deretter prøv pf/lillef pf/rf langf/lillef osv.)

Link to comment
Share on other sites

Går nok en smule for raskt den der GP file ja! Det skal ikke være en sånn "brbrbrbrrp"-ting! På orginalen går den mer en sakte nok til at man greier å skille mellom notene! Ikke at det går treigt, men bare slapp av... Så meningsløst fort går den nok ikke!

Link to comment
Share on other sites

Create an account or sign in to comment

You need to be a member in order to leave a comment

Create an account

Sign up for a new account in our community. It's easy!

Register a new account

Sign in

Already have an account? Sign in here.

Sign In Now
  • Recently Browsing   0 members

    • No registered users viewing this page.
×
×
  • Create New...

Important Information

By using this site, you agree to our Terms of Use.