Gå til innhold
stringmaster

Theme Flåklypa

Anbefalte innlegg

noen som sitter på tabs til resten av flåklypa sangen? har fiksa det jeg har på et lydklipp, men det hjelper da virkelig ikke så mye, når jeg vil ha hele.. jaja, hvis du ikke har det, så kan du spille dette, og humre litt for deg selv:

|-----0-----5----7---8--7----5----3----0--|

|--------------------------------------------|

|--------------------------------------------|

|--------------------------------------------|

|--------------------------------------------|

|--------------------------------------------|

|--------------------------------------------------------|

|---1----3----5-6-5---3----1---3---5----3----1---0--|

|--------------------------------------------------------|

|--------------------------------------------------------|

|--------------------------------------------------------|

trenger, som du ser, bare melodien..

Del dette innlegget


Lenke til innlegg
Del på andre sider



|---0-2-3-2-0-----|-----------------|------------|

|-0-----------3-0-|-----0-1-0-------|-0----------|

|-----------------|-0-2-------2-0-2-|---2-0------|

|-------------0---|-----------------|-------4----|

|-----2-----3-----|-----------0-----|-2-----2----|

|-0-------------3-|-----0-----------|------------|





|---0-2-3-2-0-----|----------------------|

|-0-----------3-0-|-----0----------------|

|-----------------|-0-2---2-0------------|

|-------------0---|-----------4-2-1-2----|

|-----2-----3-----|-----------2-2-2------|

|-0-------------3-|-----0-----------0----|

Her er sånn jeg spiller den :D

Del dette innlegget


Lenke til innlegg
Del på andre sider

Fikk ikke den første til å funke helt, men den andre var bra! :D

Del dette innlegget


Lenke til innlegg
Del på andre sider

Ok, da har jeg tabbet litt mer i vertfall, vet ikke om det er 100% riktig.

Tror ikke det er så mye mere enn det jeg har tabbet her nå i sangen, det meste går om og om igjen.

Flåklypa

Del dette innlegget


Lenke til innlegg
Del på andre sider

hva heter sangen egentlig da? det er jo egentlig ikke flåklypa theme,

Del dette innlegget


Lenke til innlegg
Del på andre sider

hmm inbiller meg at det er en gamlere sang lagd lenge (eller ikke så lenge) før flaaklypa, at det er en fiolin sang av noe slag eller fløyte, eg har hørt navnet før, den er brukt som intro til nattønske, og er på en plate med en ellerannen norsk visesanger av noe slag

Del dette innlegget


Lenke til innlegg
Del på andre sider

På nattønnsket så tror jeg det er en sang som heter Vårsøg tror det er Hennin Sommerro og sigmund groven som spiller.

Del dette innlegget


Lenke til innlegg
Del på andre sider

Mhm, vårsøg er det egentlige navnet på sangen.

Del dette innlegget


Lenke til innlegg
Del på andre sider

Hadde denne liggende. Er den "actionlåta" til Solan:

E||------------------------|-------------------|------------------------|

B||------------------------|-------------------|------------------------|

G||------------------4---5-|-------------------|------------------------|

D||--5----5----5---7-------|------7------------|--5----5----3---2-0-----|

A||------------------------|-------------------|----------------------3-|

E||------------------------|-------------------|------------------------|





                                                               

------------------|------------------------|--------------------|

------------------|------------------------|--------------------|

------------------|------------------------|---------------5----|

------------------|----------------------5-|----------9---------|

------------------|--5----5----5---7-8-----|--------------------|

------------------|------------------------|--------------------|





                                           

------------------------|------------------||

------------------------|------------------||

--7----7----5---4-2---0-|------------------||

------------------------|------------------||

------------------------|------------------||

------------------------|------------------||

Del dette innlegget


Lenke til innlegg
Del på andre sider
Ok, da har jeg tabbet litt mer i vertfall, vet ikke om det er 100% riktig.

Tror ikke det er så mye mere enn det jeg har tabbet her nå i sangen, det meste går om og om igjen.

Flåklypa

*bukker dypt*

Del dette innlegget


Lenke til innlegg
Del på andre sider

Opprett en konto eller logg inn for å kommentere

Du må være et medlem for å kunne skrive en kommentar

Opprett konto

Det er enkelt å melde seg inn for å starte en ny konto!

Start en konto

Logg inn

Har du allerede en konto? Logg inn her.

Logg inn nå

  • Hvem er aktive   0 medlemmer

    Ingen innloggede medlemmer aktive

×
×
  • Opprett ny...

Viktig informasjon

Dette nettstedet bruker cookies for å gi deg en best mulig brukeropplevelse Bruksvilkår.