Gå til innhold
heggiero

riktig stairway tab

Anbefalte innlegg

Haha de har jo kalt bandet for Led Zeppeling :P

Jeg merka også at det ikke blir helt riktig

Del dette innlegget


Lenke til innlegg
Del på andre sider

Jeg vet ikke om det er riktig, men jeg menr at sangen skal ha en boks etter dette.

E-------0-2-----2-|-0-----0----------|---------3-----3-|

B-----------3-----|---1-----0h1------|-1-----1---0-----|

G-----0-------2---|-----2-------2----|---0---------0---|

D---2-----0-------|-3----------------|-----2-----------|

A-3---------------|---------0----0-2-|-3---------------|

E-----------------|------------------|---------3-------|

Jeg har pleid å spille dette etter det partiet, men med begrenset gehør, så er jeg ikke sikker.

3p2---

------3

-------

0------

-------

-------

Del dette innlegget


Lenke til innlegg
Del på andre sider

Husk å bruke ørene deres :)

På denne sangen kikket jeg bare på denne delen av tabben:

E-------5-7-----7-|-8-----8-2-----2-|
B-----5-----5-----|---5-------3-----|
G---5---------5---|-----5-------2---|
D-7-------6-------|-5-------4-------|
A-----------------|-----------------|
E-----------------|-----------------|

Resten plukket jeg etter hørselen. Etter hvert fikk jeg også min egen versjon av sangen, så jeg spiller den på den måten jeg synes den høres best ut. ;)

Del dette innlegget


Lenke til innlegg
Del på andre sider

Skjønner det ikke, men nesten alle tab'ene på internett mangler slutten på 3 linje. Den er jo slettes ikke så vanskelig :P

E-------5-7-----7-|-8-----8-2-----2-|-0---------0-----|-----------------|
B-----5-----5-----|---5-------3-----|---1---1-----1---|-0-1-1-----------|
G---5---------5---|-----5-------2---|-----2---------2-|-0-2-2-----------|
D-7-------6-------|-5-------4-------|-3---------------|-----------------|
A-----------------|-----------------|-----------------|-2-0-0---0--/8-7-|
E-----------------|-----------------|-----------------|-----------------|

E---------7-----7-|-8-----8-2-----2-|-0---------0-----|-----------------|
B-------5---5-----|---5-------3-----|---1---1-----1---|-0-1-1-----------|
G-----5-------5---|-----5-------2---|-----2---------2-|-0-2-2-----------|
D---7-----6-------|-5-------4-------|-3---------------|-----------------|
A-0---------------|-----------------|-----------------|-2-0-0-------0-2-|
E-----------------|-----------------|-----------------|-----------------|

E-------0-2-----2-|-0-----0----------|---------3-----3-|-3p2--2-2-------|
B-----------3-----|---1-----0h1------|-1-----1---0-----|----------------|
G-----0-------2---|-----2-------2----|---0---------0---|----------------|
D---2-----0-------|-3----------------|-----2-----------|-0----0-0-------|
A-3---------------|---------0----0-2-|-3---------------|------------0-2-|
E-----------------|------------------|---------3-------|----------------|

E---------2-----2-|-0-----0----------|---------------2-|-0-0-0----------|
B-------1---3-----|---1-----0-1------|-------1-----3---|-1-1-1----------|
G-----0-------2---|-----2-------2----|-----0-----2-----|-2-2-2----------|
D---2-----0-------|-3----------------|---2-----0-------|-3-3-3----------|
A-3---------------|---------0----0-2-|-3---------------|----------------|
E-----------------|------------------|-----------------|----------------|

Del dette innlegget


Lenke til innlegg
Del på andre sider

Bruk øret, mann! det er ikke vanskelig.

Del dette innlegget


Lenke til innlegg
Del på andre sider

Tar en stund å trene øret, ja, men det skjer ingenting om du ikke prøver.

Del dette innlegget


Lenke til innlegg
Del på andre sider

/8 betyr slide opp til 8. bånd.

Opp fra hva?

Slide fra noen bånd før 8.

Velg det du synes høres best ut.

Endret av Pitmairen

Del dette innlegget


Lenke til innlegg
Del på andre sider

Jeg tar en løs A-streng først, plasserer fingeren på andre bånd og slider opp til 8. Synes det høres bra ut...

Del dette innlegget


Lenke til innlegg
Del på andre sider

Men for all del, du er ikke nødt til å følge det som står i tabbene. Hør bare på Mr. Page når han spiller den live! Få din egen vri på sangen, så blir den mer spennende å høre på. ;)

Del dette innlegget


Lenke til innlegg
Del på andre sider

Opprett en konto eller logg inn for å kommentere

Du må være et medlem for å kunne skrive en kommentar

Opprett konto

Det er enkelt å melde seg inn for å starte en ny konto!

Start en konto

Logg inn

Har du allerede en konto? Logg inn her.

Logg inn nå

  • Hvem er aktive   0 medlemmer

    Ingen innloggede medlemmer aktive

×
×
  • Opprett ny...

Viktig informasjon

Dette nettstedet bruker cookies for å gi deg en best mulig brukeropplevelse Bruksvilkår.