Gå til innhold
Roar

Trenger hjelp til sweeping!

Anbefalte innlegg

Støtt på et problem som jeg ikke klarer å tappe.

Som f.eks på denne sweepen:

8 8

12 12

10 10

10 10

10 10

8 10 8

Klarer ikke å sweepe når det kommer tre 10-ere(osv) etterhverandre sånn der. Kan noen spille inn en video der de viser hvordan man gjør det?

På forhånd, takk.

Og sweepen gikk til helvet, men håper man skjønner likevel.

Del dette innlegget


Lenke til innlegg
Del på andre sider

Jeg er ikke god på sweeping, men klarer det i lavt tempo, og jeg bruker ringfingeren til de 3 tonene på 10. bånd.

En må rulle med fingeren, for å dempe tonene en allerede har slått.

Del dette innlegget


Lenke til innlegg
Del på andre sider

Du finner sweepene i sangen Children of Bodom - Kissing The Shadows.

Bluegrot, skal teste.

Del dette innlegget


Lenke til innlegg
Del på andre sider

Barré med ringfingeren.

Ellers bruker Alexi Laiho mye 'klipp-og-lim'-juks i studio, så ikke forvent at alle soloene hans er fullstendig spillbare i virkeligheten.

Del dette innlegget


Lenke til innlegg
Del på andre sider
Er sweeping barré med ringefingeren?

Nei, sweeping er å la plekteret gli nedover strengene (eller oppover) mens tonane skifter. På den måten kan du spille løp og sånt veldig fort.

Del dette innlegget


Lenke til innlegg
Del på andre sider
Barré med ringfingeren.

Ellers bruker Alexi Laiho mye 'klipp-og-lim'-juks i studio' date=' så ikke forvent at [i']alle soloene hans er fullstendig spillbare i virkeligheten.

Har du noe fakta som kan støtte opp om den påstanden der?

Ang. sweepinga i den soloen jeg preiker om, så er det spillbart. Bare jeg som ikke klarer slike sweeps.

Del dette innlegget


Lenke til innlegg
Del på andre sider
Barré med ringfingeren.

Ellers bruker Alexi Laiho mye 'klipp-og-lim'-juks i studio' date=' så ikke forvent at [i']alle soloene hans er fullstendig spillbare i virkeligheten.

Alex Laiho er en stor juksemaker ja. Har hørt om det der. Så du uttalelsen hans i GW? Dream Theater is a lame band....lol..

Del dette innlegget


Lenke til innlegg
Del på andre sider
Barré med ringfingeren.

Ellers bruker Alexi Laiho mye 'klipp-og-lim'-juks i studio' date=' så ikke forvent at [i']alle soloene hans er fullstendig spillbare i virkeligheten.

Har du noe fakta som kan støtte opp om den påstanden der?

Det er viden kjent. Petrucci gjør det også, men er litt flinkere til å lage ting som kan spilles i livesammenheng. Nå synger også Alexi mens han spiller, så det gjør det jo ikke noe lettere...

Del dette innlegget


Lenke til innlegg
Del på andre sider
Barré med ringfingeren.

Ellers bruker Alexi Laiho mye 'klipp-og-lim'-juks i studio' date=' så ikke forvent at [i']alle soloene hans er fullstendig spillbare i virkeligheten.

Alex Laiho er en stor juksemaker ja. Har hørt om det der. Så du uttalelsen hans i GW? Dream Theater is a lame band....lol..

Jepp. Litt teit å si noe sånt, men fyren må få mene akkurat hva han selv vil.

Del dette innlegget


Lenke til innlegg
Del på andre sider
Barré med ringfingeren.

Ellers bruker Alexi Laiho mye 'klipp-og-lim'-juks i studio' date=' så ikke forvent at [i']alle soloene hans er fullstendig spillbare i virkeligheten.

Har du noe fakta som kan støtte opp om den påstanden der?

Det er viden kjent. Petrucci gjør det også, men er litt flinkere til å lage ting som kan spilles i livesammenheng. Nå synger også Alexi mens han spiller, så det gjør det jo ikke noe lettere...

Okei. Jeg har ikke støtt borti noen tabs som jeg ikke klarer å spille. Grunnen til at denne er kjiper'n er sweepinga som jeg fortsatt ikke har fått hjelp til. :(

Del dette innlegget


Lenke til innlegg
Del på andre sider

skjønner ikke helt det tab-greiene du la ut, men fant et annet tab.

regner med at du sikter til denne delen?



|---------------8-10-8----------------------------10-12-10-------------|

|------------10--------10----------------------12----------12----------|

|---------10--------------10----------------12----------------12-------|

|------10--------------------10----------12----------------------12----|

|-8-12--------------------------12-10-14----------------------------14-|

|----------------------------------------------------------------------|

Det skal jo være greit, men om du ikke fikser å bruke ringefingeren, kan du spille:



                 t                                  t

|-------------5-7-10-7-5-----------|-------------7-9-12-9-7-----------|

|----------6--------------6--------|----------8--------------8--------|

|-------5--------------------5-----|-------7--------------------7-----|

|----7--------------------------7--|----9--------------------------9--|

|-8--------------------------------|-10-------------------------------|

|----------------------------------|----------------------------------|

Du kan jo bytte ut tappet på toppen med sliding, vet ikke helt hva som passer... Har aldri vært fan av CoB...

andre alternative "mønster":





             

|-------------------------------------|

|----------------13-15-13-------------|

|-------------14----------14----------|

|----------15----------------15-------|

|-------15----------------------15----|

|-13-17----------------------------17-|



|-------------------------------------|

|----------------13-15-13-------------|

|-------------14----------14----------|

|----------15----------------15-------|

|----12-15----------------------15-12-|

|-13----------------------------------|



Eller om barre med pekefinger er lettere:



|-------------------------------------|

|-------------10-13-15-13-10----------|

|----------10----------------10-------|

|-------10----------------------10----|

|----12----------------------------12-|

|-13----------------------------------|







Eller om du er bedre på stringskipping:





|-------------8-10-8-----------|

|--------6-10--------10-6------|

|------------------------------|

|---7-10------------------10-7-|

|-8----------------------------|

|------------------------------|



Eller om du vil blande inn tapping og stringskipping:







       T      pT rT pT      T

|-------------------------------------|

|---------6-10-13-15-13-10-6----------|

|-------------------------------------|

|-------------------------------------|

|-8-12-15--------------------15-12-8--|

|-------------------------------------|





pT= pekefinger tap

rT= ringeringer tap



Jaja... er ikke så god på disse Romeo/Thal/whatever tappingene selv(Chopin greia til Thal har irritert meg i åresvis.. :oops: )...

Uansett, selv om du finner en måte å spille det på, øv fortsatt på de barre-sweepene... grei å kunne, og det tar ikke så alt for lang tid til de er nogen lunde rene...

Om jeg har tatt feil arper, så er det jo bare å se på modellene, og lage nye... :o

Del dette innlegget


Lenke til innlegg
Del på andre sider
Barré med ringfingeren.

Ellers bruker Alexi Laiho mye 'klipp-og-lim'-juks i studio' date=' så ikke forvent at [i']alle soloene hans er fullstendig spillbare i virkeligheten.

Har du noe fakta som kan støtte opp om den påstanden der?

Det er viden kjent. Petrucci gjør det også, men er litt flinkere til å lage ting som kan spilles i livesammenheng. Nå synger også Alexi mens han spiller, så det gjør det jo ikke noe lettere...

Okei. Jeg har ikke støtt borti noen tabs som jeg ikke klarer å spille. Grunnen til at denne er kjiper'n er sweepinga som jeg fortsatt ikke har fått hjelp til. :(

Kom til meg kjære du, så skal du få tabs du ikke klarer å spille ;)

Del dette innlegget


Lenke til innlegg
Del på andre sider

Opprett en konto eller logg inn for å kommentere

Du må være et medlem for å kunne skrive en kommentar

Opprett konto

Det er enkelt å melde seg inn for å starte en ny konto!

Start en konto

Logg inn

Har du allerede en konto? Logg inn her.

Logg inn nå

  • Hvem er aktive   0 medlemmer

    Ingen innloggede medlemmer aktive

×
×
  • Opprett ny...

Viktig informasjon

Dette nettstedet bruker cookies for å gi deg en best mulig brukeropplevelse Bruksvilkår.