Gå til innhold
Boffen

Tabs til Briskeby - Miss you like crazy

Anbefalte innlegg

Noen som har tabs til denne?

Takker på forhånd om det er en som har denne.

Del dette innlegget


Lenke til innlegg
Del på andre sider

Er det ingen som har tabs?

Kunne noen værsåsnill prøvd å tabbe den, har prøvd litt selv, men er hadde vært enklere om noen kunne hjulpet med hvilke effekter som brukes på gitaren (gehøret mitt er heller ikke verdens beste).

Værsåsnill! Jeg er evig takknemlig til den som kommer opp med tabs.

Endret av hans k

Del dette innlegget


Lenke til innlegg
Del på andre sider
Gjest Ziggy Stardust

Skal se om jeg får gjort det.. :)

Del dette innlegget


Lenke til innlegg
Del på andre sider

Jeg skal hjelpe deg med starten:

 4/4
Gtr I
E E E E E E E E E E E E E E E E E E E E E E E E E E E E E E E E
|-----------------5-5-5-3-3-3-5-5-----------------6-6-6-5-5-5-6-6---|
|-6-6-6-5-5-5-6-6-6-6-6-6-6-6-6-6-6-6-6-5-5-5-6-6-6-6-6-6-6-6-6-6---|
|-5-5-5-5-5-5-5-5-----------------5-5-5-5-5-5-5-5-------------------|
|-------------------------------------------------------------------|
|-------------------------------------------------------------------|
|-------------------------------------------------------------------|

Jeg er litt usikker på hvilket instrument, men dette spilles ganske piano i bakgrunnen samtidig:

 4/4
Gtr I
H H H
|----------------|
|----------------|
|----------------|
|-3--------------|
|------3----1----|
|----------------|

Lykke til!

Endret av Calle

Del dette innlegget


Lenke til innlegg
Del på andre sider

Opprett en konto eller logg inn for å kommentere

Du må være et medlem for å kunne skrive en kommentar

Opprett konto

Det er enkelt å melde seg inn for å starte en ny konto!

Start en konto

Logg inn

Har du allerede en konto? Logg inn her.

Logg inn nå

  • Hvem er aktive   0 medlemmer

    Ingen innloggede medlemmer aktive

×
×
  • Opprett ny...

Viktig informasjon

Dette nettstedet bruker cookies for å gi deg en best mulig brukeropplevelse Bruksvilkår.