Web Analytics
Jump to content

Smoke On The Water


Siss29
 Share

Recommended Posts

Jeg holder på med "Smoke on the water" som er på videolekssjoner på denne siden: http://www.farhat.name/ (Videos -->Deep Purple-->Smoke on the Water--> Part 1) Ut i fra tabsen øverst på siden, tolka jeg det som om man holdt ned 4.og 5 streng på 5.bånd og slo an disse samtidig (som powerchords) osv. Men på videon ser det ut som om han gjør noe annet? Er det noen som kan dette og vet hva som skal gjøres? Jeg synes uansett det hørtes kult ut på den måten jeg gjorde det men...

Edited by Siss29
Link to comment
Share on other sites

du mener 5 og 3?

For at det skal være en powerchord så må to ulike toner/sifre stå under hverandre.

Uansett så spilles den slik, Steve Morse viser det i nyeste Guitar World, pluss at jeg så det på konserten:


----------------------------------------------------------
----------------------------------------------------------
-------0----3--5----0----3--5^-5-----0----3--5--3--0------
-------0----3--5----0----3--5^-5-----0----3--5--3--0------
----------------------------------------------------------
----------------------------------------------------------

Edited by hans k
Link to comment
Share on other sites

du mener 5 og 3?

For at det skal være en powerchord så må to ulike toner/sifre stå under hverandre.

Uansett så spilles den slik, Steve Morse viser det i nyeste Guitar World, pluss at jeg så det på konserten:


----------------------------------------------------------
----------------------------------------------------------
-------0----3--5----0----3--5^-5-----0----3--5--3--0------
-------0----3--5----0----3--5^-5-----0----3--5--3--0------
----------------------------------------------------------
----------------------------------------------------------

Ja . 3 og 5. Gikk litt fort i svingene her.

Slik er det satt opp på den siden jeg prøver å lære meg den fra:

1 |------------------------------------------------------

2 |------------------------------------------------------

3 |------3--5---------3--6--5----------3--5--3---------

4 |--5--3--5------5--3--6--5-------5--3--5--3-5-----

5 |--5-------------5-----------------5------------5-------

6 |-------------------------------------------------------

Link to comment
Share on other sites

du mener 5 og 3?

For at det skal være en powerchord så må to ulike toner/sifre stå under hverandre.

Uansett så spilles den slik, Steve Morse viser det i nyeste Guitar World, pluss at jeg så det på konserten:


----------------------------------------------------------
----------------------------------------------------------
-------0----3--5----0----3--5^-5-----0----3--5--3--0------
-------0----3--5----0----3--5^-5-----0----3--5--3--0------
----------------------------------------------------------
----------------------------------------------------------

Ja . 3 og 5. Gikk litt fort i svingene her.

Slik er det satt opp på den siden jeg prøver å lære meg den fra:

1 |------------------------------------------------------

2 |------------------------------------------------------

3 |------3--5---------3--6--5----------3--5--3---------

4 |--5--3--5------5--3--6--5-------5--3--5--3-5-----

5 |--5-------------5-----------------5------------5-------

6 |-------------------------------------------------------

Men det er altså feil.

Link to comment
Share on other sites

du mener 5 og 3?

For at det skal være en powerchord så må to ulike toner/sifre stå under hverandre.

Uansett så spilles den slik, Steve Morse viser det i nyeste Guitar World, pluss at jeg så det på konserten:


----------------------------------------------------------
----------------------------------------------------------
-------0----3--5----0----3--5^-5-----0----3--5--3--0------
-------0----3--5----0----3--5^-5-----0----3--5--3--0------
----------------------------------------------------------
----------------------------------------------------------

MÅ vel ikke ha 2 forskjellige sifre? Så lenge det er gruntona og kvintet man spiller så er det vel en powerchord.

Det er powerchords du har skrevet der. Bare i "1. Omvending" på en måte.

Link to comment
Share on other sites

du mener 5 og 3?

For at det skal være en powerchord så må to ulike toner/sifre stå under hverandre.

Uansett så spilles den slik, Steve Morse viser det i nyeste Guitar World, pluss at jeg så det på konserten:


----------------------------------------------------------
----------------------------------------------------------
-------0----3--5----0----3--5^-5-----0----3--5--3--0------
-------0----3--5----0----3--5^-5-----0----3--5--3--0------
----------------------------------------------------------
----------------------------------------------------------

MÅ vel ikke ha 2 forskjellige sifre? Så lenge det er gruntona og kvintet man spiller så er det vel en powerchord.

Det er powerchords du har skrevet der. Bare i "1. Omvending" på en måte.

Men hun som har spilt i halvannen måned, tenker nok på powerchords som "lange- og ringefinger grepet".

Link to comment
Share on other sites

du mener 5 og 3?

For at det skal være en powerchord så må to ulike toner/sifre stå under hverandre.

Uansett så spilles den slik, Steve Morse viser det i nyeste Guitar World, pluss at jeg så det på konserten:


----------------------------------------------------------
----------------------------------------------------------
-------0----3--5----0----3--5^-5-----0----3--5--3--0------
-------0----3--5----0----3--5^-5-----0----3--5--3--0------
----------------------------------------------------------
----------------------------------------------------------

MÅ vel ikke ha 2 forskjellige sifre? Så lenge det er gruntona og kvintet man spiller så er det vel en powerchord.

Det er powerchords du har skrevet der. Bare i "1. Omvending" på en måte.

Men hun som har spilt i halvannen måned, tenker nok på powerchords som "lange- og ringefinger grepet".

:unsure: Jeg tenkte på powerchords som et eller annet hvor man slår an to strenger samtidig. Definisjonen på powerchords har jeg ikke helt klart for meg ennå. Det inrømmer jeg glatt.

Det jeg egentlig ville fram til (i "Smoke on the water"), var om man holdt ned to strenger samtidig med venstre hånd (på samme bånd) samtidig som man slo an de samme strengene med høyre hånd. Videon jeg kikka på var litt vanskelig å tyde.

Link to comment
Share on other sites

Create an account or sign in to comment

You need to be a member in order to leave a comment

Create an account

Sign up for a new account in our community. It's easy!

Register a new account

Sign in

Already have an account? Sign in here.

Sign In Now
 Share

  • Recently Browsing   0 members

    • No registered users viewing this page.
  • Siste aktive tråder

    • Som BobbyBay sier, se på Finn om du finner noe i nærheten til akseptabel pris, ta med gitaren og prøv.
    • Du bør ha 10" eller 12" høyttalerelement. Det er et must for å få god lyd. Så er det om man skal ha rør eller transistor / digital forsterker - det er en smakssak. Her er et par Vox Valvetronics (modellering): https://www.finn.no/bap/forsale/ad.html?finnkode=262995185 https://www.finn.no/bap/forsale/ad.html?finnkode=257890983 En rørforsterker kan får man ikke samme pene lyden på både på lavt som høyt volum, og man kan ikke spille via hodetelefoner med den. På en annen side får man en helt annen lyd, og annen respons (vanskelig å forklare.) En Bugera (rør) med mange muligheter til en grei penge: https://www.finn.no/bap/forsale/ad.html?finnkode=257472591  
    • Hej! Har en Gretsch streamliner g2420t som jeg brukte en billig forsterker til som ble ødelagt. Nå vil jeg kjøpe en litt bedre en (tænker rundt 1000-3000kr.) Siden det er en hollowbody som høres fin ut akustisk, vil jeg gjerne ha en amp som kan få den til å høre flott ut elektrisk også. Har ikke mye forstand på forsterkere så kunne veldig gjerne ha bruk for råd og eksempler:)))  
    • Smått hotte virker de ihverfall. Splitter overraskende fint og tonekontrollen roter ikke ting til når man ruller tilbake. Men jeg er ikke helt forelsket i halsen. Det er noe med den chunky v-profilen kombinert med relativt flatt fingerbrett som virker litt klomsete. Eller det kan være at halsen på den HBSC550-II`en er ekstremt god match her til sammenligning
    • Hei!   Bor i Oslo og er nybegynner på slidegitar. Kjøpte ein billig gitar for formålet, med mål om å bli såpass god at eg oppgraderer gitaren etter hvert.  Har stemt den i åpen E. Har prøvd å lære meg litt selv, og kommet eit lite stykke på vei. Men om eg skal lære ordentlig og komme meg videre, så tror eg det hadde vært ein fordel og fått litt kvalifisert hjelp. Er det noen som kan slide i åpen E, eller som kjenner noen, og som kan lære bort? Og evt pris.   Takker Asgeir
  • http://www.BILDELERstore.co.no

  • Støtt driften av GitarNorge


  • Https://Www.AutoDELER.co.NO
×
×
  • Create New...

Important Information

By using this site, you agree to our Terms of Use.