Gå til innhold
ApoteX

den ultimate norske --> TABS <-- Tråden!

Anbefalte innlegg

Hei.. Sikkert flere enn meg som vil ha alle tabs samlet under en topic!

Derfor startet jeg denne tråden! :)

Regler :

1. Det skal kun postes TABS! ikke CHORDS(grep)

Men det er lov og poste chords HVIS det inneholder tabs OGSÅ! :P

2. Ikke komenter dårlige tabs!

3. Ikke post tabs som er postet fra før hvis de er Like! :P

Untatt de reglene er ALT lov! ;)

edit: Om du har laget tab'n selv eller bare har den har ingen betydning ;)

Del dette innlegget


Lenke til innlegg
Del på andre sider

Begynner med en selv! :)

Forelska i Lærærn

- The Kids



  Tabs-seksjon

           

           

           

               åpning:

  E              A  E              A

E|-------------------------------------|

H|-------------------------------------|

G|----------------2-----------------2--|

D|-2--2-2--2--2-2-2--2--2-2--2--2-2-2--|

A|-2--2-2--2--2-2-0--2--2-2--2--2-2-0--|

E|-0--0-0--0--0-0----0--0-0--0--0-0----|

           vers: Hun sitter foran meg......



rfrg: Hun er forelska...



vers: Lærer'n vår er 20 år...



rfrg: Hun er forelska .... (2 ganger)

               gitarsolo 1.stemme:

  C#m                   A                          F#m

E|-----------------------------------------------------|

H|-----------------------------------------------------|

G|---------------4-6-6b8r6------------------4-6-6b8r6--|

D|-----------4-6------------------------4-6------------|

A|-4-4-4-6-7------------------4-4-4-6-7----------------|

E|-----------------------------------------------------|

|                                                     |

|  gitarsolo 2.stemme:                                |

|                                                     |

E|-----------------------------------------------------|

H|---------------4-5-5b7r5------------------4-5-5b7r5--|

G|-----------4-6------------------------4-6------------|

D|-------4-6------------------------4-6----------------|

A|-7-7-7----------------------7-7-7--------------------|

E|-----------------------------------------------------|

               gitarsolo 1.stemme:

                        E

E|----------------------------12p9--12p9---------------|

H|-----------------5-5b7r5----------------12p9-12p9----|

G|---------------4-------------------------------------|

D|-----------4-6---------------------------------------|

A|-4-4-4-6-7-------------------------------------------|

E|-----------------------------------------------------|

|                                                     |

|  gitarsolo 2.stemme:                                |

|                                                     |

E|----------------------------16p12-16p12-12p9-12p9----|

H|---------------4-9-9b10r9----------------------------|

G|-----------4-6---------------------------------------|

D|-------4-6-------------------------------------------|

A|-7-7-7-----------------------------------------------|

E|-----------------------------------------------------|

               gitarsolo 1.stemme:

                                    C#m

E|-----------------------------------------------------|

H|-----------------------------------------------------|

G|-11p9 11p9--------------------------------6-6-6------|

D|-----------11p9-11p9---------------------------------|

A|---------------------11p9-11p9-9p7-9p7-4--------4----|

E|-----------------------------------------------------|

|                                                     |

|  gitarsolo 2.stemme:                                |

|                                                     |

E|-----------------------------------------------------|

H|-12p9-12p9--------------------------------5-5-5------|

G|-----------11p9-11p9---------------------------------|

D|---------------------11p9-11p9-9p6-9p6---------------|

A|---------------------------------------7--------7----|

E|-----------------------------------------------------|

               gitarsolo 1.stemme:

                        A                                 F#m

E|------------------------------------------------------------|

H|------------------------------------------------------------|

G|---------------4-6-6b8r6--6-6-6------------------4-6-6b8r6--|

D|-----------4-6-------------------------------4-6------------|

A|-4-4-4-6-7----------------------4--4-4-4-6-7----------------|

E|------------------------------------------------------------|

|                                                            |

|  gitarsolo 2.stemme:                                       |

|                                                            |

E|------------------------------------------------------------|

H|---------------4-5-5b7r5--5-5-5------------------4-5-5b7r5--|

G|-----------4-6-------------------------------4-6------------|

D|-------4-6-------------------------------4-6----------------|

A|-7-7-7--------------------------7--7-7-7--------------------|

E|------------------------------------------------------------|

               gitarsolo 1.stemme:

                                 E

E|------------------------------------|

H|--------------------------5-5b7r5---|

G|-6-6-6------------------4-----------|

D|--------------------4-6-------------|

A|-------4--4-4-4-6-7-----------------|

E|------------------------------------|

|                                    |

|  gitarsolo 2.stemme:               |

|                                    |

E|------------------------------------|

H|-5-5-5------------------4-9-9b10r9--|

G|--------------------4-6-------------|

D|----------------4-6-----------------|

A|-------7--7-7-7---------------------|

E|------------------------------------|

           rfrg:  Hun er forelska...osv.. med samme gitarsolo til fade...





************************************

* NÅLGA - Norsk ÅnLain Gitar Arkiv *

*   http://home.no.net/naalga      *

************************************

Del dette innlegget


Lenke til innlegg
Del på andre sider

please kan noen tabbe no jokke, fins jo ikke et jævla tab av han, har tråla hele internett

Del dette innlegget


Lenke til innlegg
Del på andre sider
Jokke & Valentinerne - Action 



Tekst & Melodi: Joachim nielsen



Dette er den første tab`en jeg har skrevet. Så hvis det er noen rare tegn og sånn, så vet dere grunnen... Erik Haugerud  



Grep:

x: strenger som skal dempes (ikke spilles på)



E5: 022x00

C: x32000

F5: 1332xx

D: xx0232

G: 3x000x

F#: 2x000x

G5: 3552xx

A5: x0222x

C5: x3555x

D5: x5777x



Tegnforklaringer:



b : bending. 1/1: full bend (tilsvarer to bånd opp) 1/4: 1/4 bend (tilsvarer 1/2 bånd)

_ : hold benden

r: release (ta ned benden)

(  ): ikke spill dette hardt (er heller ikke så viktig)

~ : vibrato

h : hammer on (vet ikke hva dette heter på norsk, slags tapping med bare venstrehånda)

* : en tone som er sånn pga. benden (som skal holdes)



introriff:



4 |-7b1/1__7*r-5------------------------------------------------5b1/2--------------------------------------------------|

5 |----------------------7~---7~---5h7~-7~---------10--9---7~-------7~---7~---5h7~-7~-------10--9---7~-(7)-|

6 |---------------------(0)----------(0)---------8~---------------------- (0)---------(0)-----------8~--------------------|



vers:



3 |--------------------------------0-------------------|        

4 |-------2---------2----------2--------------2------ |

5 |----2----2----2----2----3--------------2----2----|      

6 |-0----------0------------------------0-------------|   X2

    E5                            C               E5

3 |-----------------------------------------------------|        

4 |-------2---------2-------------3-----------2------ |

5 |----2----2----2----2-------3-----------2----2----|       noen ganger "slår" jokke F5`en

6 |-0----------0-------------1-----------0------------|       istedenfor å "plukke`n"

    E5                              F5            E5

   | <-----spill dette 2 ganger før refrenget-------->  |

1|---------------------------2---2--|------------------------------------|------------------2-----|

2|---------------------------3---3--|-----------(0)----------------(0)--|------------------3-----|

3 |--------------------------2---2--|------------0------------------0---|------------------2-----|        

4 |-------2---------2-------0---0--|------------0------------------0---|--------2--------0------|

5 |----2----2----2----2------------|------------------------------------|--------2---------------|      

6 |-0----------0--------------------|----3~-----------3~--2~---------|-2~---0-----0---------|

    E5                            D         |      G                       G/F#       |          E5          D  

       ^ Begynn på nytt igjen første gangen.  

 

Før refrenget kommer det en gitar til, som spiller dette 2 ganger: 4 |--------5---4---2---0-----------|



refreng: G5G5   G5G5   A5   C5   G5    D5    G5G5   G5G5   C5   G5   (G5   F5   C5)X3   E5



så går alt en gang til, så kommer gitarsoloen hvor introriffet spilles i bakgrunnen.



Gitarsolo:



1 |-------------------------12---------(12)-----------------------------12---15---12------------12--------------------|

2 |------------12----------15---------(15)--------------------12h15--------------------12h15-----------------------|

3 |-14b1/1~____14*~___14*~_14*r-12-14b1/1~-------------------------------------------14b1/1r-12----|

4 |-------------------------------------------------------------------------------------------------------------------------|



1 |------------------------------------------------------------------------------------------------------------------------|

2 |(12)------------------------------12--12----------12----------12--------12--12---------------12----12-----------|

3 |-14b1/1~_14*r-12------------12--12----------12----------12--------12--12---14b1/1__14*_14*r--------|

4 |--------------------------14~--------------14~--------14~---------14~--------------------------------------------|



1 |-------------------------------------------------------|

2 |-12-------12-------------12b1/4-------------------|

3 |-12h14--12-------------12b1/4-------------------|

4 |-----------------14~-------------14~-----(14)----|



så går verset en gang til, men G F# E D spilles 4 ganger og de to første gangene spilles dette over:



1 |------------------------------------------------------------------------------------------------------------------------|

2 |-10^12~-----10~---8-7-8~----------------------------------------------------------------------------------------|

3 |------------------------------------9--7~------5^7----4~-----2--0----2-4-2~-------------------------------------|

4 |------------------------------------------------------------------------------------------------------------------------|



sangen slutter på G.



Intro



Vers:



E5     C         E5

Det er midt på natta, men det æ’kke no’ mørkt

          C                   E5

Midt på natta, men jeg    æ’kke no’ trøtt

       F5    E5

Byen er stille og rusten og slutt

             D                G   F# E5

Alt jeg kan høre, er mine skritt

              C                  E5

Det er midt på natta, i en by som er stengt

            C               E5

Spiller ingen rolle, mine lommer er vrengt

     F5          E5

Jeg kan høre sirener, ikke langt borte

             D                       G  F#  E5  D

Jeg hører sirener, men jeg se’kke no’ action

 G  F#  E5  D  

Jeg se’kke no’ action



Refreng:

         G5

Jeg ser etter action, action

      A5

Jeg ser etter action,

        D5   G5          D5

men alt jeg finner er glasskår og spy

   G5

Action, action

      C5       G5

Jeg ser etter action

G5             F5 C5               G5

Gi meg ett eller annet før dagen deres gryr

Gi meg ett eller annet før dagen deres gryr

G5             F5               C5             E5

Gi meg ett eller annet før dagen deres .......gryr



Intro



Vers2:



I de tusen hjem er kveldstrimmen over

kona er våken, og gubben sover

Hun tenner røyk og lytter til regnet

Lytter til regnet mens hun venter på action

Snart skal hele denne byen gå på jobben,

Hele byen unntatt jeg skal gå på jobben

Jeg tenner en røyk og lytter til regnet

Lytter til regnet mens jeg

venter på action

Jeg venter på action

Jeg venter på action, action



Refreng2:



Jeg ser etter action,

men alt jeg finner er glasskår og spy

Action, action

Jeg ser etter action

Gi meg ett eller annet før dagen deres gryr

Gi meg ett eller annet før dagen deres gryr

Gi meg ett eller annet før dagen deres...



Gitarsolo



Vers3:



Her kommer den første trikken, snart er det dag

Snart åpner dem butikken, og da er det dag

Halve byens alkoholiker stam

Står og skjelver nå, dem venter på action

Jeg sitter på en benk og ser på folket går forbi

Dem myldrer fram som maur, med blodskutte auver

Jeg tenner en røyk og lytter til regnet

Lytter til regnet mens jeg

venter på action



Avslutning:  (G  F# E5 D) X4   G





kommentarer kan sendes til haugerud@bu.telia.no



Folk kan godt kopiere dette, så lenge de ikke tar kreditten for det



Erik Haugerud







En liten hyllest:



Joachim Nielsen døde 17. Oktober 2000

Han var etter min mening Norges beste rocker gjennom tidene.

Jokke er uansett vorspielkongen.

Jævlig kjipt at han døde...





************************************

* NÅLGA - Norsk ÅnLain Gitar Arkiv *

*   http://home.no.net/naalga      *

************************************

Del dette innlegget


Lenke til innlegg
Del på andre sider
Gutta 

- Jokke og Valentinerne



~Intro:

|----------------------------|--------------------------------|-----------------

|7---------7-----------------|--------------------------------|-----------------

|7---------7-----------------|------------------------4-----4-|----4-------6----

|7---------7---------7---7/--|9-----7-----------------5-----5-|----5-------7----

|5---------5-----------------|------------9-----7-----5-----5-|----5-------7----

|----------------------------|------------------------3-----3-|----3-------5----





D          G    A

Ja, så sitter vi her igjen

D            G  A

Som om vi var no'n gamle menn

D                    G   A

Vi lever av øl og sprit og dop og gamle

D                          G  A

historier, som alle har hørt fra før



   Hm F# G D

For vi er gutta som har opplevd alt

     Hm      F#   G    A

Så vi trenger ikke oppleve mer

    Hm    F#             G       D

Vi har vært verden rundt, det-vi-si Kjøben og London

 Hm    F#      G     A

Det fins ingen ting som ikke vi har prøvd

     D             G         A

Så vi sitter her og kjeder hverandre

D                   G  A

Mens vi krangler om hvem som skal gå å handle



D G A

Ja, så sitter vi her igjen

D G A

Og venter på at noe skal skje

D G A

Hjertet blir kaldt, mens ølet blir varmt

D G A

Og vi byner å få litt vondt for å le



  Hm

For vi er gutta...



F Dm F

Jeg husker alle våre store planer, og alt vårt hat - yeah

b F Am C

Hvor er det hatet nå, jeg føler ingenting

F Dm F

Vi pleide å gå rundt å drømme, drømme om vår hevn

b F Am C D

Hva var det vi skulle hevne, jeg husker ingenting - ingenting



D       G        A

Ja, så er man endelig voksen

D               G          A

Søvnløs om natta og bevistløs om da'n

D                 G  A

Og pengeproblemer og kvinnfolkproblemer

D                     G    A

Og alkoholproblemer som de gamle bohemer



  Hm

For vi er gutta...









************************************

* NÅLGA - Norsk ÅnLain Gitar Arkiv *

*   http://home.no.net/naalga      *

Del dette innlegget


Lenke til innlegg
Del på andre sider
#----------------------------------PLEASE NOTE---------------------------------#

#This file is the author's own work and represents their interpretation of the #

#song. You may only use this file for private study, scholarship, or research. #

#------------------------------------------------------------------------------#

#



Date: 6-9 2001

Subject: tab: Her Kommer Vintern (Jokke & Valentinerne)



                       Her Kommer Vintern

                      Jokke & Valentinerne  





INTRO: D-A D-E D-A-F#m-E



INTRO Solo:



1----------------------------10-10-8-6-8~-------------------10-8-6-----------------|

2-8-8-10-11-11-----8-8-10-11--------------8-8-10-11-11-------------8-6-6-6-3-4-3-1-|

3-------------10~--------------------------------------10~-------------------------|

4----------------------------------------------------------------------------------|

5----------------------------------------------------------------------------------|

6----------------------------------------------------------------------------------|







       A                  D



VERS:   Er du av typen som aldri blir brun, og som







       Hm                      E



       aldri heller prøver noe særlig på å bli det







       A                   D



       Er du ansett som en kjedelig kujon







       Hm                       E



       fordi du stort sett ikke gidder å bade







       D         A         D           E                   D



       Har du problemer    med å omgås overdrevne positive folk







                A           F#                E



       du ekke aleine,vi er mange som har det sånn







VERS: Er du av typen som liker å sitte,



sitte inne og pimpe når sola skinner



Er du av typen som er svak for sport



Men bare på skjermen,og bare når vi vinner



Da har du problemer,ifølge peanøtt hjerneforbundet



Men du ekke aleine,vi er mange som har det sånn





       A                      D              Hm              E



BRIDGE: Folkens,jeg kommer med nyheter,jeg må be om absolutt stillhet







       A            D        Hm            E



Ventetida er over,det kommer til å  -  falle snø i natt







       D          A          D              E



REFR: Her kommer vintern    her kommer den kalde fine tida







       D          A         F#m            E



her kommer vintern   endelig fred å få









GIT.SOLO: A-D-Hm-E-A-D-Hm-E  



Solo:



1-------------------------------3----------------|-------6---6---6---6---8-6-|

2-----1-3-1---3-3-3-1---------3---5-3-5-3-2------|-6-8-6---6---6---6---6-----|

3-----------3---------3~--3-5---------------5-3~-|---------------------------|

4-3-3--------------------------------------------|---------------------------|

5------------------------------------------------|---------------------------|

6------------------------------------------------|---------------------------|



1-6-5-6-----------------3-3-5-6-5-5-6-6~-|

2-------6-4-3-3-4-4-6-6------------------|

3----------------------------------------|

4----------------------------------------|

5----------------------------------------|

6----------------------------------------|







       D            A         D           E                    



Lai lai lai lai lai    lai lai lai lailailailai







       D           A          F#m             E





lai lai lai lai lai -  lai lai lai lai lai







VERS: Er du av typen som lar deg irritere



av folk som alltid skal imponere



Har du et kjøleskap,har du en TV



så har du alt du trenger for å leve for





REFR:



       D          A       D              E      



       Her kommer vintern her kommer den kalde fine tida      



       D          A       F#m            E



       Her kommer vintern endelig fred å få





       C#m-H-A





************************************

* NÅLGA - Norsk ÅnLain Gitar Arkiv *

*   http://home.no.net/naalga      *

************************************

Del dette innlegget


Lenke til innlegg
Del på andre sider
To fulle menn - gitarsolo

- Jokke og Valentinerne

                                                         

E||--------------------------|----------8------10--------|

B||--------6---------6-------|--6/8/10-----10------------|

G||-----7-----7--5/7----7----|---------------------------|

D||-/7-----------------------|---------------------------|

A||--------------------------|---------------------------|

E||--------------------------|---------------------------|





                                                               

--10---10-----10----13b-10--8------|----------------------------|

-----------10----10------------10--|--8--8-8-----8----10--------|

-----------------------------------|----------10---10-----------|

-----------------------------------|----------------------------|

-----------------------------------|----------------------------|

-----------------------------------|----------------------------|





                                                         

--8-----8-----8----8--10--------|--13b---13b---10--------|

-----10----10---10-----------10-|------------------------|

--------------------------------|------------------------|

--------------------------------|------------------------|

--------------------------------|------------------------|

--------------------------------|------------------------|





                                                                           

-------10----10-------------------|-----------------------------||

--8/10----10-----8------8-------8-|--10--10--10h8----8----------||

--------------------10-------10---|---------------10---7--------||

----------------------------------|-----------------------------||

----------------------------------|-----------------------------||

----------------------------------|-----------------------------||



Tablatur av Dag Sverre Høye





************************************

* NÅLGA - Norsk ÅnLain Gitar Arkiv *

*   http://home.no.net/naalga      *

************************************

Del dette innlegget


Lenke til innlegg
Del på andre sider

DDE :?

DDE - Vinsjan På Kaja-SOLO (live)



1--------------------------------------------------------|

2--------------------------------------------------------|

3-8-8-8------------8-8-----------------8----8----8-------|

4-------10-8----10-----10-11-10-----10---10---10---10----|

5------------11-----------------11--------------------11-|

6--------------------------------------------------------|



1----------------------------------------------------------|

2----------------14-13-------11----11----11----------------|

3-13-12-13-10-10-------13-12----12----12----12-------11-10-|

4----------------------------------------------13-12-------|

5----------------------------------------------------------|

6----------------------------------------------------------|



1------------------------------------------------------------------------------|

2----------------------------11---------------------------------14-13-14-13----|

3-------------------13-12-13-------------13----13----13---13-13-------------15-|

4----10-13-10-10-13-------------13-13~15----15----15----15--15-----------------|

5-11---------------------------------------------------------------------------|

6------------------------------------------------------------------------------|







************************************

* NÅLGA - Norsk ÅnLain Gitar Arkiv *

*   http://home.no.net/naalga      *

************************************

Del dette innlegget


Lenke til innlegg
Del på andre sider

Beklager at jeg muligens ødelegger en ellers fin tråd, men ville det ikke vært lettere å bare linke til Nålga?

Del dette innlegget


Lenke til innlegg
Del på andre sider
please kan noen tabbe no jokke' date=' fins jo ikke et jævla tab av han, har tråla hele internett[/quote']

da har du ikke leita mye... lol..

her er det 14 jokke tabs... http://www.ultimate-guitar.com/tabs/jokke_...nerene_tabs.htm

å på mx tabs er det fulle menn!! har lagd den selv... 8) den har topp raiting.. jeg er små stolt..

Del dette innlegget


Lenke til innlegg
Del på andre sider

:oops: såg ikke denne tråden.. hehe.. men er det noen her som hat tabs til turbonegro - high on the crime

Del dette innlegget


Lenke til innlegg
Del på andre sider

Seff.. jeg har ALT! :P

Song: High On The Crime

By: Turbonegro

Transcribed: HitzCore from HGSD

HitzCore@hotmail.com







Main riff



|--1--4--6--4--|

|--1--4--6--4--|

|--1--7--6--6--|

|--3--6--8--6--|

|--3--6--8--4--|

|--1--4--6--4--|



Bridge



|--4--6--1--|

|--4--6--1--|

|--6--6--1--|

|--6--8--3--|

|--4--8--3--|

|--4--6--1--|



Bridge variation into refrain



|--4--6--6--3--6--3---8--4--6--6--|

|--4--6--6--3--6--3---8--4--6--6--|

|--6--6--8--5--8--5--10--5--8--6--|

|--6--8--8--5--8--5--10--6--8--8--|

|--4--8--6--3--6--3---8--6--6--8--|

|--4--6--6--3--6--3---8--4--6--6--|



Refrain



|---8--4--6--6--|

|---8--4--6--6--|

|--10--5--8--6--|

|--10--6--8--8--|

|---8--6--6--8--|

|---8--4--6--6--|



Bridge from refrain to main riff



|---8--6--3--1--4--|

|---8--6--3--1--4--|

|--10--8--5--3--5--|

|--10--8--5--3--6--|

|---8--6--3--1--6--|

|---8--6--3--1--4--|



Del dette innlegget


Lenke til innlegg
Del på andre sider

er her noen som kan være so snill å hjelpe meg med melodilinjen til tanta til beate..

er også på jakt ette rmelodilinjen til tir' na noir men den trur eg at eg har snart.. trenger bare litt hjelp med fingerspillet.

mvh

en som nettopp har skrevet sin første post.

Del dette innlegget


Lenke til innlegg
Del på andre sider

Opprett en konto eller logg inn for å kommentere

Du må være et medlem for å kunne skrive en kommentar

Opprett konto

Det er enkelt å melde seg inn for å starte en ny konto!

Start en konto

Logg inn

Har du allerede en konto? Logg inn her.

Logg inn nå

  • Hvem er aktive   0 medlemmer

    Ingen innloggede medlemmer aktive

×
×
  • Opprett ny...

Viktig informasjon

Dette nettstedet bruker cookies for å gi deg en best mulig brukeropplevelse Bruksvilkår.