Gå til innhold
pacific_leon

carmen av marius müller

Anbefalte innlegg

http://home.no.net/berglove/naalga/mm/

Tabs:

Hvis du vil ha .txt filen så send meg pm ;)

Intro:

----------------------|-------0-1|--------------|----------|---5h8p5----|-|---

-----1----1-----------|-----3----|-------6---5h6|------6---|---------6--|-|---

---2--------0---------|----------|-----7---7----|------7---|-----------7|-|---

-3------2-----------0-|0---------|---7----------|------7---|------------|-|---

--------------------5-|5---------|-5------------|------5---|------------|-|---

----------------------|----------|--------------|----------|------------|-|---







Vers1:

------------------------------|-----

------------------------------|-023----

-------7^^--------------------|-----

------------------------------|-----

------------------------------|-----

------------------------------|-----

Klapprende       hæler............



----------1-|----------------------0-1-0------------3-----5------3------1-0---

--------1---|----------1---------1-------1--------3---3-----3-----3-----------

------2-----|--------0---------0-----------0----3-------3-----3----3----------

----3-------|------2--------------------------5-----------------------0-------

---3--------|----3------------------------------------------------------------

-1----------|-----------------------------------------------------------------





---0--------------|---------1---1---------1-----0-----8--------------2---8-|--

-3-----6h5-----5--|---------3-3-3-3-------1-----1----8---------------3---8-|--

-------5-----3----|---------------2-------2--0--0---9------7h5-------3---3-|--

-------5---5------|------0----------------------2--------------------5---5-|--

------------------|---0h3-----------------------3--------------------------|--

------------------|--------------------1-----------------------3-----------|--

                         Jeg sitter stille.......



-1------------------|-----5--------1----------------------0----1h0------------

-3-----------5------|---6--------------------1--------1------------1----------

-2-------5-7---5---7|------------2---------0--------0---0---------------------

-------7---------5--|-7--------3---------2------------------------------------

--------------------|------------------3--------------------------------------

--------------------|--------1------------------------------------------------





---------3------------------------------------|-----1-------------------------

---------3----6----------6---------5------8/--|-------3------------1----------

-------3------7--------7---7-----5------------|-----2------------0-----5---5--

-----5---------------7-------5-5----------5/--|--0-------------2-------5h7-5--

---3--------5------5--------------------------|--------------3----------------

-3--------------------------------------------|-------------------------------





----------------3-------5-------3-----|-------------------------------------|-

--------------3---3-------3-------3---|----6------------------1-------------|-

--------------------3-------3-------0-|---7---------------0-----------------|-

-----5-----5--------------------------|------7--------2---------------------|-

-5h7-------5--------------------------|--5--------3-------------------------|-

---------3----------------------------|-------------------------------------|-

Ref:



----1---1----------|----------------------------3-|------------------------|--

----1---1--------1-|------------3------3--------3-|------3---3---4--4-----4|--

----2-0-2-------0--|---3------3---3------3--------|----3---3-----3----3----|--

----3---3------2---|--------5--------------5-3----|--------------5------5--|--

--------------3----|------------------------------|--1-----------6---------|--

-1------1----------|-------3----------------------|------------------------|--

   Carmen, Carmen ........



-------1-------------------------|---1--1---1----------1----------------------

-------1-----5--------6-------8--|---1--1---1-----1-----------3-----3---------

-----2---------5--------5--------|---2--2---2-----0---------3---3-----3-------

---3-------------5--------5------|----------------2-------5-------5-----5-----

---------------------------------|----------------3---------------------------

-1-------------------------------|--1---1--1-----------3----------------------



                                                      Bridge:

--3-------|---1--1----1-------------------------------|----------------------|

----3---3-|---3--3----3-------4----------1-----1------|---6p5-----5h6--------|

------3---|---3--3----3---------5----------2-----0----|-------7--------------|

----------|-----------------------5---3------2------0-|---------7------------|

----------|-1-------1-1-----6-----------------------5-|----------------------|

----------|-------------------------------------------|----------------------|

Endret fra quote til code. Euph

Del dette innlegget


Lenke til innlegg
Del på andre sider
Endret fra quote til code. Euph

Way to go, Euph... :mrgreen:

Del dette innlegget


Lenke til innlegg
Del på andre sider

ha! Sannelig har jeg naalgan oppe enda! :D

Hvis noen har noe de vil tillføye arkivet mitt av norske tabber, er det bare å sende PM! ;)

Del dette innlegget


Lenke til innlegg
Del på andre sider

Opprett en konto eller logg inn for å kommentere

Du må være et medlem for å kunne skrive en kommentar

Opprett konto

Det er enkelt å melde seg inn for å starte en ny konto!

Start en konto

Logg inn

Har du allerede en konto? Logg inn her.

Logg inn nå

  • Hvem er aktive   0 medlemmer

    Ingen innloggede medlemmer aktive

×
×
  • Opprett ny...

Viktig informasjon

Dette nettstedet bruker cookies for å gi deg en best mulig brukeropplevelse Bruksvilkår.