Web Analytics
Jump to content

Akkorder


Siggy
 Share

Recommended Posts

Jeg fant en string skipping video av Paul Gilbert på youtube, og lurer på om noen kan finne akkorder til den.

S S S S S S S S S S S S S S S S S S S S S S S S S S S S S S S S

E||---15p-12------------------12--------15p-12----12--------|--15p-12------------------12-15p-12-----------14---------||

B||---------------------------------------------------------|-------------------------------------------------15p-12--||

G||*---------16p-12----12h-16----16p-12--------16----16p-12-|---------16p-12----12h-16-----------16p-12-14-----------*||

D||*----------------14--------------------------------------|----------------14--------------------------------------*||

A||---------------------------------------------------------|---------------------------------------------------------||

E||---------------------------------------------------------|---------------------------------------------------------||

S S S S S S S S S S S S S S S S S S S S E S S S S S S S S S S

--15p-12------------------12--------15p-12----12--------|--15p-12-----------------12p-8-15p-8-12p-8-------|

--------------------------------------------------------|---------13p-8-----8h-13-------------------------|

---------17p-12----12h-17----17p-12--------17----17p-12-|-------------------------------------------12----|

----------------14--------------------------------------|---------------10-----------------------------10-|

--------------------------------------------------------|-------------------------------------------------|

--------------------------------------------------------|-------------------------------------------------|

S S S S E S S S S S S S S S S S S S S S S S S S S S S S S S S

--14p-10--------------10--------14p-10----10-------|--14p-11--------------------------------------------------|

---------------------------------------------------|----------------------------------------12h-16p-12--------|

---------14p-9-----14----14p-11--------14----14----|---------14p-11----11h-14p-11----------------------14p-12-|

---------------12-------------------------------12-|----------------13---------------13h-16-------------------|

---------------------------------------------------|------------------------------14--------------------------|

---------------------------------------------------|----------------------------------------------------------|

Det er litt uryddig tab, men her finner du både guitar pro og tab: http://www.ultimate-guitar.com

/search.php?s=Sequenced+String+Skipping&w=songs://http://www.ultimate-guitar.com

/sea...ing&w=songs

Her er videoen:

Den første akkorden er visst Em tror jeg :huh:

På forhånd takk :P

Link to comment
Share on other sites

Create an account or sign in to comment

You need to be a member in order to leave a comment

Create an account

Sign up for a new account in our community. It's easy!

Register a new account

Sign in

Already have an account? Sign in here.

Sign In Now
 Share

  • Recently Browsing   0 members

    No registered users viewing this page.

×
×
  • Create New...

Important Information

By using this site, you agree to our Terms of Use.