Gå til innhold
Gillosepoy

Krise, I Will Survive

Anbefalte innlegg

Kan noen tab'e piano introen på Gloria Gaynor - I will survive???

Trenger den fort!

Del dette innlegget


Lenke til innlegg
Del på andre sider

Neinei, mener pianoet i gitar tab stil.. altså trenger en med godt gehør.. ikke Cake forresten, men Gloria Gaynor.. det er en helt annen sang..

Altså.. pianoet som spiller introen på Gloria Gaynor - I Will Survive skrevet for gitar i fingerspill..

Del dette innlegget


Lenke til innlegg
Del på andre sider

Høres ut som Hermes House Band sin versjon!

Let litt etter den

Del dette innlegget


Lenke til innlegg
Del på andre sider

Midi fila!

http://www.cifras.com.br/midis/12964.mid

import den i gitar pro,

E||------------------|---------------------1-4-7-|

B||------------------|-----------------0-3-3-----|

G||------------------|--------------1------------|

D||------------------|--2---------3--------------|

A||------------------|---------------------------|

E||------------------|--0------------------------|





                                                                             

---10-13-16-19-22-25--22-------------------|--------------------------------0-|

--------------------------24--21-----------|----------------------------------|

----------------------------------22-19----|--------------------------------5-|

----------------------------------------21-|---18---------------------------7-|

-------------------------------------------|------20--17--------------------0-|

-------------------------------------------|-------------19-16-13---10--------|





                                                               

--------------------|---------------------|-------------------0-|

------------------6-|-------------------0-|-------------------0-|

------------------7-|-------------------7-|-------------------5-|

------------------7-|-------------------5-|-------------------5-|

------------------5-|---------------------|---------------------|

--------------------|---------------------|---------------------|

mm vet ikke om det hjelper, men hvis du importerer det i guitarpro får du se notene og slikt.

Del dette innlegget


Lenke til innlegg
Del på andre sider

Opprett en konto eller logg inn for å kommentere

Du må være et medlem for å kunne skrive en kommentar

Opprett konto

Det er enkelt å melde seg inn for å starte en ny konto!

Start en konto

Logg inn

Har du allerede en konto? Logg inn her.

Logg inn nå

  • Hvem er aktive   0 medlemmer

    Ingen innloggede medlemmer aktive

×
×
  • Opprett ny...

Viktig informasjon

Dette nettstedet bruker cookies for å gi deg en best mulig brukeropplevelse Bruksvilkår.