Web Analytics
Jump to content

Noter for to gitarer?


Recommended Posts

Tja, ikke så nøye om det er noter eller tabs, men det må være mer avansert enn "Hvem kan segla" med én streng hver.

Poenget er at vi vil utnytte fordelene med å være to gitarer, i stedet for å spille omtrent de samme grepene/fingerspillene. Problemet er vel at de fleste populærlåter der flere gitarer benyttes spilles mest imporovisert, dvs. at det ikke er skrevet ned noter.

Link to comment
Share on other sites

Tja, ikke så nøye om det er noter eller tabs, men det må være mer avansert enn "Hvem kan segla" med én streng hver.

Poenget er at vi vil utnytte fordelene med å være to gitarer, i stedet for å spille omtrent de samme grepene/fingerspillene. Problemet er vel at de fleste populærlåter der flere gitarer benyttes spilles mest imporovisert, dvs. at det ikke er skrevet ned noter.

Hvis det er populærmusikk, så er ingen av duettene i boka mi noe tess. Alle er skrevet kun for boka. Noen OK melodier ute og går.

Men hvis det er så at dere kan lese noter, så hvorfor ikke bare grave frem en sangbok? En spiller akkorder, den andre melodien?

Men er dere kun to gitarister, eller to gitarister i et band?

Link to comment
Share on other sites

Seigmen - Draaben.....funne ut mange mulige måter å spille den på :D så bare å velge å vrake :P

/ = Slide

Main riff:

C A

e||---------------------------------------------------------|

B||---------------------------------------------------------|

D||---------------------------------------------------------|

G||------10---------10--------7-------7-------7-------7-----|

A||---10----10---10----10---7---7---7---7---7---7---7---7---|

E||-8----------8----------5-------5-------5-------5---------|

som et streif av en dråpe

fikk vi lov til å håpe

på de ting som skal komme

inntil livet er omme

streif av en dråpe

E F G

e||-----------------------------------------------------------------|

B||-----------------------------------------------------------------|

D||-----------------------------------------------------------------|

G||-----2-------2-------3-------3-------5-------5-------5-------5---|

A||---2---2---2---2---3---3---3---3---5---5---5---5---5---5---5---5-|

E||-0-------0-------1-------1-------3-------3-------3-------3-------|

Refreng:

e||-----------------------------------------------------------------|

B||-----------------------------------------------------------------|

D||-----------------------------------------------------------------|

G||-10---7---2---3---5----10---7---2---3---5------------------------|

A||-10---7---2---3---5----10---7---2---3---5------------------------|

E||--8---5---0---1---3-----8---5---0---1---3------------------------|

Tone Gitar:

Skru opp på Echo på forsterker

Min må en skru opp Length og Depth på,

er ikke sikker på om det er sånn på alle

e||-----------------------------------------------------------------|

B||-----------------------------------------------------------------|

D||-----------------------------------------------------------------|

G||-----------------------------------------------------------------|

A||-/10--/7--/2--/3--/5--/7--/9--/10--/7--/2--/3--/5--/7--/9--------|

E||-----------------------------------------------------------------|

Akkorder:

C A E F G

Om det er noe som skal rettes så bare send mail til: Kennethnaerum@gmail.com

Link to comment
Share on other sites

Prøv dere på noe av The Cure. De har så vidt jeg vet 2 gitarister. Friday I'm in Love er fin. :D

Var Cure-fan for mange år siden, men er ikke helt der nå lenger. Går mer i Cash, Wonder, Beatles, S&G, Bee Gees, Bowie, Stones, Elton John, osv, pluss diverse jazz, dvs. mer kommærs "pen" musikk(?). Takk for forslag i hvert fall, skal gi den en test.

Men hvis det er så at dere kan lese noter, så hvorfor ikke bare grave frem en sangbok? En spiller akkorder, den andre melodien?

Men er dere kun to gitarister, eller to gitarister i et band?

Joa, vi har prøvd det, men vi ville gjerne lære oss noen triks som får ut det lille ekstra ved nettopp å være to gitarer. Foreløpig er det kun oss med stålstrenger..

Link to comment
Share on other sites

Da foreslår jeg at dere leter opp arrangement av låter med flere stemmmer, og skriver om sånn at det passer for to gitarer.

I tillegg kan dere ta låter dere allerede har inne og prøve å skrive noen partier om slik at de spilles flerstemt.

Link to comment
Share on other sites

Create an account or sign in to comment

You need to be a member in order to leave a comment

Create an account

Sign up for a new account in our community. It's easy!

Register a new account

Sign in

Already have an account? Sign in here.

Sign In Now
  • Recently Browsing   0 members

    • No registered users viewing this page.
×
×
  • Create New...

Important Information

By using this site, you agree to our Terms of Use.