Gå til innhold
Strat fan

Apache- The Shadows

Anbefalte innlegg

jeg lurte på om det er noe sted hvor man kan få lead gitaren til apache med the shadows? jeg og en venn skal spille den på skoleavslutninga og jeg skal spille lead gitar. han har akkordene men jeg trenger å lære meg det jeg skal spille. er det noen som vet om noe sted det står sånt?

Del dette innlegget


Lenke til innlegg
Del på andre sider

Denne er ganske bra http://www.thetabworld.com/Shadows__Apache_3_guitar_tab.html

Men jeg tror jeg ville spillt 3th og 4th theme slik:



3rd theme
|1st |2nd
F | Am | Am
E------------------------------------------------------------|------|---|
B------------------------------------------------------------|------|---|
G------------------------------------------------------------|------|---|
D-----3-3-3--3-3------3-3-3--3-3----3-3-3--3-3-----3-3-3--3--|-2^---|-2-|
A-3----------------3-------------3--------------3------------|----0-|---|
E------------------------------------------------------------|------|---|


4th theme
|1st,3rd |2nd
F G | Am | C C7
E-------------------|--0------------|-------------------------------|
B--------1--0--1--3-|-----3---1-----|-------8-------11--------------|
G-----2-------------|------------2--|-0--7/9---9/12---11^12^11^12---|
D--3----------------|---------------|-------------------------------|
A-------------------|---------------|-------------------------------|
E-------------------|---------------|-------------------------------|

Del dette innlegget


Lenke til innlegg
Del på andre sider

han marvin ser jo glad ut men han virker litt sinnsvak. måten han går rundt og spiller og smiler og sånn. han ser litt koko ut. litt som en far til en i klassen min lissom

Del dette innlegget


Lenke til innlegg
Del på andre sider

neida. hankyboy skal ha all ære for at han ikke bare legger opp å kaster straten i søpla fordi han har klimpra apache ørtåførti ganger (eler kanskje snørråførti) han virker jo son han triver

Del dette innlegget


Lenke til innlegg
Del på andre sider

neida. hankyboy skal ha all ære for at han ikke bare legger opp å kaster straten i søpla fordi han har klimpra apache ørtåførti ganger (eler kanskje snørråførti) han virker jo son han triver

shaddows er konge hehe

Del dette innlegget


Lenke til innlegg
Del på andre sider

han marvin ser jo glad ut men han virker litt sinnsvak. måten han går rundt og spiller og smiler og sånn. han ser litt koko ut. litt som en far til en i klassen min lissom

Du må også huske at den tida han spillte på så var det sånn man var på scenen.

Dette var før gitarknusing, hopping og spretting.

Del dette innlegget


Lenke til innlegg
Del på andre sider

Opprett en konto eller logg inn for å kommentere

Du må være et medlem for å kunne skrive en kommentar

Opprett konto

Det er enkelt å melde seg inn for å starte en ny konto!

Start en konto

Logg inn

Har du allerede en konto? Logg inn her.

Logg inn nå

  • Hvem er aktive   0 medlemmer

    Ingen innloggede medlemmer aktive

×
×
  • Opprett ny...

Viktig informasjon

Dette nettstedet bruker cookies for å gi deg en best mulig brukeropplevelse Bruksvilkår.