Gå til innhold
vinger-guitar

Quang og Stars

Anbefalte innlegg

Jeg er litt fersk når det gjelder fingerspill og bruken av dette forumet.. jeg leste et sted at noen ønsket Quang, men jeg klarte ikke finne tråden så jeg startet en ny en.. er denne taben noen lunde riktig? satt i 2 timer for å finne riktig tab :blink:

Intro:

|-------------------|

|-------------------|

|-------------------|

|-------------------|

|---------0------2-|

|--3----------------|

Verse:

|------------0-----|--------------3---|------------1-----|-------------0----|

|------------1-----|--------------0---|------------3-----|-------------1----|

|------------------|------------------|------------------|------------------|

|--------2---------|----------0-------|---------0--------|--------2---------|

|--3---------------|------2-----------|-----0------------|--3---------------|

|------------------|------------------|------------------|------------------|

Det her er en historie om en gutt som heter Quang

|-------------1----|--------------0---|------------2-----|-------------3----|

|-------------3----|--------------1---|------------3-----|-------------0----|

|------------------|------------------|------------------|------------------|

|--------0---------|--------2---------|---------0--------|--------0---------|

|---0--------------|---3--------------|-----0------------|----2-------------|

|------------------|------------------|------------------|------------------|

Han er syv år , bor i Thailand, og hans arbeidsdag er lang

|-------------3----|-------------0----|------------2-----|-------------3----|

|-------------0----|-------------1----|------------3-----|-------------0----|

|------------------|------------------|------------------|------------------|

|--------0---------|---------2--------|---------0--------|--------0---------|

|----2-------------|---3--------------|-----0------------|----2-------------|

|------------------|------------------|------------------|------------------|

Han står opp veldig tidlig , og går til sengs når det blir natt

|-------------3----|------------0-----|-------------3----|-------------0----|

|-------------1----|------------1-----|-------------0----|-------------1----|

|------------------|------------------|------------------|------------------|

|--------0---------|-------2----------|---------0--------|--------2---------|

|----0-------------|--3---------------|-----2------------|----3-------------|

|------------------|------------------|------------------|------------------|

for selv om quang er bare barnet så må han jobbe veldig hardt.

|------------0-----|--------------3---|------------1-----|-------------3----|

|------------1-----|--------------0---|------------3-----|-------------0----|

|------------------|------------------|------------------|------------------|

|--------2---------|----------0-------|---------0--------|----------0-------|

|--3---------------|------2-----------|-----0------------|-----2------------|

|------------------|------------------|------------------|------------------|

hver morgen klokka kvart på 5, går quang helt for seg selv

|-------------1----|--------------0---|------------2-----|-------------3----|

|-------------3----|--------------1---|------------3-----|-------------0----|

|------------------|------------------|------------------|------------------|

|--------0---------|--------2---------|---------0--------|--------0---------|

|---0--------------|---3--------------|-----0------------|----2-------------|

|------------------|------------------|------------------|------------------|

gjennom tornekratt og brennesle, til en båt ved en elv

|-------------3----|-------------0----|------------2-----|-------------3----|

|-------------0----|-------------1----|------------3-----|-------------0----|

|------------------|------------------|------------------|------------------|

|--------0---------|---------2--------|---------0--------|--------0---------|

|----2-------------|---3--------------|-----0------------|----2-------------|

|------------------|------------------|------------------|------------------|

og vannet det er mørkt og kaldt, men familien har gjeld

|-------------3----|------------0-----|-------------3----|-------------0----|

|-------------1----|------------1-----|-------------0----|-------------1----|

|------------------|------------------|------------------|------------------|

|--------0---------|-------2----------|---------0--------|--------2---------|

|----0-------------|--3---------------|-----2------------|----3-------------|

|------------------|------------------|------------------|------------------|

så han dykker etter perler for det meste uten held

Refreng:

Dm(F) C G C

så hva faen får deg til å tro at jeg vil høre på ditt bråk?

Dm(F) C D G

om at du ikke liker spinat eller ikke får lommepenger nok

Dm(F) C Dm(F) C

du har pølser og nintendo, du får is hvis du er grei

Dm(F) C G C

det finnes 1000 barn i verden som skulle ønske de var deg!

---------------------------------------------------

Så lurer jeg på en ting til... har noen/kan noen introen til Stars av Alejandro??

Del dette innlegget


Lenke til innlegg
Del på andre sider

Opprett en konto eller logg inn for å kommentere

Du må være et medlem for å kunne skrive en kommentar

Opprett konto

Det er enkelt å melde seg inn for å starte en ny konto!

Start en konto

Logg inn

Har du allerede en konto? Logg inn her.

Logg inn nå

  • Hvem er aktive   0 medlemmer

    Ingen innloggede medlemmer aktive

×
×
  • Opprett ny...

Viktig informasjon

Dette nettstedet bruker cookies for å gi deg en best mulig brukeropplevelse Bruksvilkår.