Gå til innhold

Anbefalte innlegg

gammel post :P men ok.. (E,A,D,G,Bb,E)

1.

------------------------------------------------------------------------------------------------------------------

----12-12~-12-12--12-12-14-10-12~--------------------------------------------------------------------

-9-------------------------------------------12-11-9~-9-11-12-11~-11-9-----9~-12-11p9------------

----------------------------------------------------------------------------------12------------------12--------

------------------------------------------------------------------------------------------------------------------

------------------------------------------------------------------------------------------------------------------

2.

--------------------------------------------------------------------------------------------------------------------------

----12-12~-12-12--12-12-14-10-12~-----------------------------------------------------------------------------

-9--------------------------------------------12-11-9~-9-11-12-11~-11-9-----9~-9-11-12-11~-11p9-------

-----------------------------------------------------------------------------------12-------------------------------12--

---------------------------------------------------------------------------------------------------------------------------

---------------------------------------------------------------------------------------------------------------------------

repeter begge delene to ganger (1,2,1,2) og avslutt andre repetisjonen på en E på 9. båndet på G-strengen, samme tonen som i starten på sangen :)

Endret av GuitarFreak

Del dette innlegget


Lenke til innlegg
Del på andre sider

Opprett en konto eller logg inn for å kommentere

Du må være et medlem for å kunne skrive en kommentar

Opprett konto

Det er enkelt å melde seg inn for å starte en ny konto!

Start en konto

Logg inn

Har du allerede en konto? Logg inn her.

Logg inn nå

  • Hvem er aktive   0 medlemmer

    Ingen innloggede medlemmer aktive

×
×
  • Opprett ny...

Viktig informasjon

Dette nettstedet bruker cookies for å gi deg en best mulig brukeropplevelse Bruksvilkår.