Web Analytics
Jump to content

Big Bang - Play Louder


Recommended Posts

  • 4 weeks later...

Intro, vers og refreng

---2--------------------------2--3------2---------------5---

---0--0---3-2-0-------3-------------0----0-------6-7------

---4----------------4--------------0---------0--7-----------

---4----4--------2--------2---------------------------------

-------------------------------------------------------------

-------------------------------------------------------------

2. vers

Hm - A x2

G - Em

Bridge

---------2---------0--------

-------3---------2--2-------

-----4---------3------3-----

---5---------4-------------- x2

-----------------------------

-----------------------------

------2--0---(spill opp igjen)

------3--2---------------

--------------------------

--------------------------

--------------------------

--0 (la ringe)-----------

Prøv deg frem med notene i første riffet for å få det til å høres riktig ut. Soloen får du tabbe selv ;)

Har også plukket "Call me" om noen er interessert i at jeg skriver ned den

Link to comment
Share on other sites

--7-----------------------------0---------------

--8---------------------7-----------------------

--9---x3----------------------------0----------

--7----------------------5--7----7-------------

--0--------------0--5--------------------------

-------------------------------------------------

Ellers er det C - D - Em - G

Svisj!

Link to comment
Share on other sites

Create an account or sign in to comment

You need to be a member in order to leave a comment

Create an account

Sign up for a new account in our community. It's easy!

Register a new account

Sign in

Already have an account? Sign in here.

Sign In Now
 Share

  • Recently Browsing   0 members

    No registered users viewing this page.

×
×
  • Create New...

Important Information

By using this site, you agree to our Terms of Use.