Gå til innhold
Eivind S

Request: Marion Raven

Anbefalte innlegg

Break You Tab by Marion Raven, www.Ultimate-Guitar.Com · Break You Tab @ 911Tabs.Com



Song: Break You

Artist: Marion Raven (my ex-gf :P)

Album: Here I Am

Tabbed by: K.C. (eternallykc@yahoo.com)

Played in: Standard tuning





Verse

e|-------------------------------------------|Slap the strings after

B|-------------------------------------------|each note.

G|-----------------------------77------------|

D|---------22----1010----55----77------------|X4

A|---------22----1010----55----55------------|

E|---------00----8-8-----33------------------|

 "I was your girl... You should know by now"



Chorus(Heavy)

e|---------------------------------------------|

B|---------------------------------------------|

G|-----------------------------------7777------|

D|-------2222----10101010----5555----7777------|X2

A|-------2222----10101010----5555----5555------|

E|-------0000----8-8-8-8-----3333--------------|

 "Bet you never thought that I could break you...

  ...Did you think that I would look the other way"



e|---------------------------------------------|

B|---------------------------------------------|

G|---------------------------------------------|

D|-------2222----10101010----55555555----------|X1

A|-------2222----10101010----55553333----------|

E|-------0000----8-8-8-8-----33333333----------|

 "Yeah you had it all figured out"



e|---------------------------------------------|

B|---------------------------------------------|

G|-----------------------------------7777------|

D|-------2222----10101010----5555----7777------|X1

A|-------2222----10101010----5555----5555------|

E|-------0000----8-8-8-8-----3333--------------|

 "But tell me who's the one who's crying now"





Verse

e|-------------------------------------------|

B|-------------------------------------------|

G|-----------------------------77------------|

D|---------22----1010----55----77------------|X4

A|---------22----1010----55----55------------|

E|---------00----8-8-----33------------------|

 "The palm of your hand... You should know by now"



(Repeat Chorus)





Bridge

e|-------------------------------------------|

B|-------------------------------------------|

G|-------------------------------------------|

D|-------------------------------------------|X2

A|---------1010----77----22----2/7-----------|

E|---------8-8-----55----00------------------|

 "On your one night stands... cause you can't hold me..."



e|-------------------------------------------|

B|-------------------------------------------|

G|---------------------------------9999------|

D|--------10101010---7777---2222---9999------|X1

A|--------10101010---7777---2222---7777------|

E|--------8-8-8-8----5555---0000-------------|

 "...down... Not now..."



e|-------------------------------------------|

B|-------------------------------------------|

G|-------------------------------------------|

D|--------10------12121212-------------------|X1

A|--------10-X8---12121212-------------------|

E|--------8-------10101010-------------------|

 "I wanna thank you..."

 "I can breathe again and I'm never going back to..."



(Repeat Chorus)



(Instruments will pause briefly, then you continue playing this)

e|-------------------------------------------|

B|-------------------------------------------|

G|---------------------7777------------------|

D|-------------5555----7777------------------|

A|-------------5555----5555------------------|

E|-------------3333--------------------------|



(Repeat chorus)











I was your girl

Gave you my world

My everything

But you wouldn´t see



I had your back

I backed you up

Whatever I did

Was never enough



Just you,you

That's all you ever thought about

You, you

No one matters like you do

What goes around comes around

You should know by now



Bet you never thought that I could break you

Did you think that I would look the other way

Yeah you had it all figured out

But tell me who's the one who's crying now



The palm of your hand

That was your plan

Gave me no time

But now you want mine



It's all about take

You took too much

Nothing inside

I'm all used up



Come on

You, you

Nothing else matters like you do

You know what I'm talkin' 'bout don't you

What goes around comes around

You should know by now



Bet you never thought that I could break you

Did you think that I would look the other way

Yeah you had it all figured out

But tell me who's the one who's crying now



On your one night stands

(should've thought about that)

Says she's just a friend

(should've thought about that)

Are you satisfied now?

(should've thought about that)

Cause you can't hold me down

Not now

I wanna thank you 'cause now I'm free

I can breathe again and I'm never going back to you



Bet you never thought that I could break you

Did you think that I would look the other way?

Yeah you had it all figured out

But tell me who's the one who's crying now

Yeah yeah



Bet you never thought that I could break you

(Bet you never thought that I could break you)

Did you think that I would look the other way

Yeah you had it all figured out

But tell me who's the one who's crying now

-------------------------------------------------------------------------------

Crawl - Marion Raevn

-------------------------------------------------------------------------------



Tabbed by: Erika

Email: i.lubz.co0keiiz@gmail.com



Tuning: Standard Tuning



Capo on first fret



Am, G, F, F, G



Verse 1

Am         G

High on a hill

        F             F     G

Heard a bird sing her song

Am             G

Sang you were true

          F           F     G

Well she got it all wrong





Pre-chorus 1

    F

She didn't know about your lies

    G

And all your stupid alibis

 F

Don't you know this bird got wise

    G

Surprise, surprise, surprise





Chorus:

                     Am   G     C

The writing's on the wall yeah, yeah

                   F    C     G

In letters written tall yeah, yeah

                      Am  G  F   Dm Em (Let ring)

I thought I'd let you know before I go



I will see you crawl



Am, G, F, F, G





Verse 2: (Strum each chord twice)

Am            G

Fell off the hill

     F            F   G

Into darkest of dreams

Am         G

Promises broke

        F            F   G

Ripped apart at the seams





Pre-chorus 2

   F

So now you know this bird has flown

    G

You will repay me what you owe

 F

Don't you know you're gonna live

 G

Alone, alone, alone





Chorus:

                     Am   G     C

The writing's on the wall yeah, yeah

                   F    C     G

In letters written tall yeah, yeah

                      Am  G  F   Dm Em

I thought I'd let you know before I go

                  Am    G     C

You made a big mistake yeah, yeah

                       F    C     G

Signed and sealed your fate yeah, yeah

                      Am  G   F Dm Em (let ring)

I thought I'd let you know before I go



I will see you crawl



Am, G, F, F, G





Bridge:

C        G                     Dm

I'll wait till the night comes

           F

In the darkness you are no one

C        G                     Dm

I'll wait till the night comes

                   F(Let ring)

Until I know all your shadows are gone





Chorus:

                     Am   G     C

The writing's on the wall yeah, yeah

                   F    C     G

In letters written tall yeah, yeah

                      Am  G  F   Dm Em

I thought I'd let you know before I go

                  Am    C     G

You made a big mistake yeah, yeah

                       F    G     C

Signed and sealed your fate yeah, yeah

                      Am  G   F Dm Em (let ring)

I thought I'd let you know before I go



I will see you crawl



Am, G, F, F, G,



End on Am

For You Ill Die Tab by Marion Raven, www.Ultimate-Guitar.Com · For You Ill Die Tab @ 911Tabs.Com



Song: For You I'll Die

Artist: Marion Raven (my ex-gf :P)

Album: Here I Am

Tabbed by: K.C. (eternallykc@yahoo.com)

Played in: Standard tuning





***Read first: You might know how a different way to hold

the chords in this tab but if you want it

to sound perfectly right, you should play

the chords the way I displayed them.

---------------------------------------------------------------



Intro

e|-------------------------------------------------------|

B|--11--10--6--8--6--------------------------------------|

G|-------------------7--5--3--3--3--0--3--5--------------|

D|-------------------------------------------------------|

A|-------------------------------------------------------|

E|-------------------------------------------------------|



e|-------------------------------------------------------|

B|--11--10--6--8--6--------------------------------------|

G|-------------------7--5--3--3--3--0--3--3--2--7--3--2--|

D|-------------------------------------------------------|

A|-------------------------------------------------------|

E|-------------------------------------------------------|





Verse 1

      Dm     Eb     Bb      F

e|------1------3------1------1------|

B|------3------4------3------1------|

G|------2------3------3------2------|X2

D|------0------5------3------3------|

A|----------------------------------|

E|----------------------------------|

 "You said I'm yours to keep...

  ...a spot next to your grave"





      Am7     F

e|------0------1------|

B|------1------1------|

G|------0------2------|X1

D|------2------3------|

A|------0-------------|

E|--------------------|





Chorus

      Gm     Eb      Bb     F

e|------3------3------1------1------|

B|------3------4------3------1------|

G|------3------3------3------2------|

D|------5------5------3------3------|X4

A|----------------------------------|

E|----------------------------------|

 "And you're a fool to not see...

  ...For you I'll..."



      Gm     Gm

e|---------------------|

B|-------------3-------|Hit these back

G|-------------3-------|to back. Listen to

D|------5--------------| X3the song for the

A|---------------------|right timing.

E|---------------------|

 "...die"



(some piano part)

e|-------------------------------------------------|

B|--11--10--8--6--8--6-----------------------------|

G|----------------------7--5--3--3--3--0--3--3--2--|

D|-------------------------------------------------|

A|-------------------------------------------------|

E|-------------------------------------------------|





Verse 2

      Dm     Eb     Bb      F

e|------1------3------1------1------|

B|------3------4------3------1------|

G|------2------3------3------2------|X2

D|------0------5------3------3------|

A|----------------------------------|

E|----------------------------------|

 "Oh this is the end...

  Are things that you'll never say"



      Am7     F

e|------0------1------|

B|------1------1------|

G|------0------2------|X1

D|------2------3------|

A|------0-------------|

E|--------------------|





Chorus

      Gm     Eb      Bb     F

e|------3------3------1------1------|

B|------3------4------3------1------|

G|------3------3------3------2------|

D|------5------5------3------3------|X4

A|----------------------------------|

E|----------------------------------|

 "It is strange how time flies...

  ...It's my soul he wants to buy"



              Gm                F     D7

e|--------------3----------------1-----2---|This shows

B|--------------3----------------1-----1---|exactly when

G|--------------3----------------2-----2---|to change the

D|--------------5----------------3-----0---|chords

A|-----------------------------------------|

E|-----------------------------------------|

 "For you I'll die, For you I'll di....e"





(Some piano part)



e|--10-------10-------10-------------------------------|

B|-----11-------11-------11----------------------------|

G|--------12-------12---------14-------14-------14-----|

D|-------------------------------15-------15-------15--| X4

A|----------------------------------17-------17--------|

E|-----------------------------------------------------|





e|--10-------10-------10------|

B|-----11-------11-------11---|

G|--------12-------12---------|

D|----------------------------| X3

A|----------------------------|

E|----------------------------|

 "No-oh... no-oh... no-..."



e|----------------------------|

B|----------------------------|

G|--14--------14-------14-----|

D|-----15--------15-------15--| X1

A|---------17-------17--------|

E|----------------------------|

 "oh..."



Chorus

      Gm     Eb      Bb     F

e|------3------3------1------1------|

B|------3------4------3------1------|

G|------3------3------3------2------|

D|------5------5------3------3------|X5

A|----------------------------------|

E|----------------------------------|

 "And you're a fool to not see...

  It's my soul he wants to buy"



              Gm                F     D7

e|--------------3----------------1-----2---|This shows

B|--------------3----------------1-----1---|exactly when

G|--------------3----------------2-----2---|to change the

D|--------------5----------------3-----0---|chords

A|-----------------------------------------|

E|-----------------------------------------|

"For you I'll die, For you I'll di....e"



              Gm                F    D7  Gm

e|--------------3----------------1----2---3--|This shows

B|--------------3----------------1----1---3--|exactly when

G|--------------3----------------2----2---3--|to change the

D|--------------5----------------3----0---5--|chords

A|-------------------------------------------|

E|-------------------------------------------|

"For you I'll die, For you I'll di...e...e"





Outro

e|-------------------------------------------------|

B|--------15-10------------------------------------|

G|-----15-----------10-12-10-----------------------|

D|--17-----------12-----------8-10-12-10--3-5-7-8--|X4

A|-------------------------------------------------|

E|-------------------------------------------------|





-----------------------------------------------------------------

When I was done tabbing this song, I was overwhelmed with

satisfaction. I didn't miss a single part of the song

and I'm sure it's 99% accurate.

-----------------------------------------------------------------

Here I Am Chords by Marion Raven, www.Ultimate-Guitar.Com · Here I Am Chords @ 911Tabs.Com

-------------------------------------------------------------------------------

    SONG NAME - Band Name

-------------------------------------------------------------------------------

Tabbed by: Erika B.

Email: i.lubz.co0keiiz@gmail.com



Tuning: Standard Tuning



Capo on 3rd Fret



Intro

e|--0-0-0---0-0----|

B|--0-0-0---0-0----|

G|--0-0-0---0-0----|

D|--2-2-2---4-4----|

A|--2-2-2---2-2----|

E|--0-0-0---0-0----|



Verse: Same as the intro until you get up to "No matter what I will be there" and

"These are the words you whispered in the night", that's when you play this

e|--0-0-0---0-0--0-----|

B|--0-0-0---0-0--0-----|

G|--0-0-0---0-0--0-----|

D|--0-0-0---4-4--0-----|

A|--2-2-2---2-2--2-----|

E|--3-3-3---3-3--3-----|



Pre-Chorus

Play the Intro twice before playing this

e|--0-0-0---0-0--0-----|

B|--0-0-0---0-0--0-----|

G|--0-0-0---0-0--0-----|

D|--2-2-2---4-4--2-----|

A|--3-3-3---3-3--3-----|

E|--0-0-0---0-0--0-----|



Chorus

                        Em

Now I'm standing in the cold

      C                 G

Everything is said and done

      G/F#           Em

Atomic winter in my soul

        C                G

From the absence of the sun

        G/F#      Em

The only remedy I know

    C             G    G/F#

Is I gotta let you go

      C9         G   D Em

Here I am, here I am





Repeat Verse





Second chorus

      C9          Em

Here I am, here I am





Bridge:

C

There will come a day

                          Em

when all of this is in my past

    C

And there will come a day

                             Em

when you're outta my head at last

    D

I'm trying not to fall

                          C9

Damn it's such a long way down

    D   G (let ring)

But here I am



Note: If you want the bridge to sound like the cd, then I suggest you play this

instead of Em



e|--0--0-0--0-0-----|

B|--0--0-0--0-0-----|

G|--0--0-0--0-0-----|

D|--2--5-5--4-4-----|

A|--2--2-2--2-2-----|

E|--x--x-x--x-x-----|



Play intro again then chorus till the end.

End on:

       C9         G  C  Em

Here I am, here I am



===============================================================================



There ya go! I think it's right... If not then feel free to make alterations to it!

Till next time! *Please disregard the first one I sent. I just realised the errors

after sending it. Thank you*

In Spite Of Me Chords by Marion Raven, www.Ultimate-Guitar.Com · In Spite Of Me Chords @ 911Tabs.Com

Song: In Spite Of Me

Artist: Marion Raven

Album: Here I Am

Tabbed by: K.C. (eternallykc@yahoo.com)

Played in: Standard tuning





D

God, it was late, I was drunk

   A

You saw me

D

The one by my side wasn't you

    A

I'm sorry

     Bm   A     D

And I knew right then

      Em   Bm   G

That I lost you there

           D

You took me in





A  A    A  D

Inspite of me

D           A        Bm

You made me feel invited

A A A   D

Nobody else

D            A      Bm

That is what I decided



A A A



D

Selfish and dumb, stupid and young

A

Yeah, that's me

D

But from all of the wrongs, you make it right

A

And forgive me



         Bm   A  D

It's been said before

        Em  Bm   G

But I'll try once more

           D

You are the one





AAAD

DABm

AAAD

DABm





A  A    A  D

Inspite of me

D           A        Bm

You made me feel invited

A A A   D

Nobody else

D            A      Bm

That is what I decided



AAA



D                        D

God, it was late, I was drunk

    A

You saw me

   D

The one by my side, he wasn't you

   D

I'm sorry



D           A        Bm

You made me feel invited

(I'm sorry)



A A A  D

Nobody else

D            A      Bm

That is what I decided





(Inspite of me, you're here)



A  A    A  D

Inspite of me

D           A        Bm

You made me feel invited

A A A   D

Nobody else

D            A      Bm

That is what I decided





(Repeat the chorus for this part)

Inspite of me, you're here

Inspite of me

Inspite of me

Little By Little Tab by Marion Raven, www.Ultimate-Guitar.Com · Little By Little Tab @ 911Tabs.Com

Song: Little By Little

Artist: Marion Raven

Album: Here I Am

Tabbed by: K.C. (eternallykc@yahoo.com)

Played in: Standard tuning





Intro

e|------------------------------------------------------------|

B|------------------------------------------------------------|

G|------------------------------------------------------------|

D|--------8~------------8--------8~-----6---------------------|X1

A|--8/10~-----6--8--10---------------5--------10~-----8-------|

E|-------------------------8/10~-----------8-------6-----6/4~-|



Verse

e|------------------------------------------------------------|

B|------------------------------------------------------------|

G|------------------------------------------------------------|

D|--------8~------------8--------8~-----6---------------------|X2

A|--8/10~-----6--8--10---------------5--------10~-----8-------|

E|-------------------------8/10~-----------8-------6-----6----|



A mean reply, so I scream

Another fight about nothing at all

And then we cry and forgive

Promising that we will never fall again



e|------------------------------------------------------------|

B|------------------------------------------------------------|

G|------------------------------------------------------------|

D|--------8~------------8-------------------------------------|

A|--8/10~-----6--8--10-----8~---------------------------------|

E|------------------------------------------------------------|



I know this much is true

Hey

Six Feet Under Chords by Marion Raven, www.Ultimate-Guitar.Com

· Six Feet Under Chords @ 911Tabs.Com  







        G               C

Six feet under, under my skin

         G                     c

There's a battle I know I can't win

     D             Em

You invade me and I surrender

Yeah..

D                        Em,AM,Em,Am  

That's what I hate about you

        G               C

Six feet under, under my skin

        G               C

There is where your story begins

        D               Em

You were wanting, I was forsaken

D

Yeah.. heh heh hey



Am                  Em

You came to me with words unspoken

D       Em              Am                  Em

I can't deny it, that I knew my glass would end up broken

D

(and that's how you got me)

Am                 Em

I blame myself for being stupid

D           Em               Am               Em            

But I can't help it, yet I'm eating right out of your hand

D                             Em,Am,Em,Am

That's what I hate about you



        G                  C

Six feet under, touching my soul

        G                     C

From the moment we met, it was sole

   D                   Em

You embraced me and I believed you

D

Yeah.. heh heh hey







Am                  Em

You came to me with words unspoken

D       Em              Am                  Em

I can't deny it, that I knew my glass would end up broken

D

(and that's how you got me)

Am                 Em

I blame myself for being stupid

D           Em               Am               Em            

But I can't help it, yet I'm eating right out of your hand

D                             Em,Am,Em,Am

That's what I hate about you

















         Em, Am

Hey heey, hey hey          (little solo part)



E|--------8----------9---------8---------------------------|

B|---6--------6-6-------6-6------6-6-*9-8--6*--------------|

G|---------------------------------------------------------|

D|---------------------------------------------------------|

A|---------------------------------------------------------|

E|---------------------------------------------------------|  x2

*Only play the first time, on second time go straight to the chorus





E|----------------6----------------------------------------|

B|--6---8-9--------9----6---8-9----4-----------------------|

G|-------------------------------------------5--1----------|

D|---------------------------------------------------------|

A|---------------------------------------------------------|

E|---------------------------------------------------------|





    Em                     Am                      G             D

It's not that hard just walk away there's gotta be a different meaning





Am                  Em

You came to me with words unspoken

D       Em              Am                  Em

I can't deny it, that I knew my glass would end up broken

D

(and that's how you got me)

Am                 Em

I blame myself for being stupid

D           Em               Am               Em            

But I can't help it, yet I'm eating right out of your hand

D

(and that's how you got me)



Am                 Em

Now's the time for my confession

D             Em                Am              Em

Cause I can't take it, that you always were and always will be



D (hold)

Håper det hjalp deg litt ;)

Del dette innlegget


Lenke til innlegg
Del på andre sider

Opprett en konto eller logg inn for å kommentere

Du må være et medlem for å kunne skrive en kommentar

Opprett konto

Det er enkelt å melde seg inn for å starte en ny konto!

Start en konto

Logg inn

Har du allerede en konto? Logg inn her.

Logg inn nå

  • Hvem er aktive   0 medlemmer

    Ingen innloggede medlemmer aktive

×
×
  • Opprett ny...

Viktig informasjon

Dette nettstedet bruker cookies for å gi deg en best mulig brukeropplevelse Bruksvilkår.