Web Analytics
Jump to content

Seigmen tabs eller akkorder :)


Recommended Posts

  • 2 weeks later...

har prøvd meg å tabbe Sort Disippel av seigmen, dette e den første sangen eg har tabba ever... :rolleyes:

Seigmen - Sort Disippel (Athletic Session)


-0-0-0-0-0-0-0-0-0 (D7)
-3-3-3-3-3-3-3-3-3
-2-2-2-2-2-2-2-2-2
-0-0-0-0-0-0-0-0-0
------------------
------------------

Ca 9 slag opp å ned passe

Etter strumme introen

-3-1-0
------
------
------
------
------
Dm D7
om jeg kunne ta tilbake
Dm D7
alt jeg har gjort
Dm D7
om jeg kunne ta tilbake
Dm D7
alt jeg har sagt
Dm D7
om jeg visste hva det kostet
Dm D7
å gi deg bort
Dm D7
om jeg kunne kledd meg naken
Dm D7
hva ville du gjort?

Tab'a av Sylteagurken (nåken spørsmål send mail til Kennethnaerum@gmail.com)

Link to comment
Share on other sites

Var veldig i tvil om jeg skulle prakke p[ alt dette, men siden jeg har sittet en halvtime og copy&pasta tenkte jeg det kanskje var interesse for det her, som sagt mye hull og tull, men se paa det som ca veiledende. Har ikke lest gjennom eller pr;vd noen, bare kopierte alt av tablignende.

has the plutonium tab,,,in case you dont know..

E----------------

B----------------

G----------------

D----------------

A-7-7-7--777/8\7-5-5-5-7/8\7-11-11-11-7-7/8\7-9-9-9-7-7/8\7

E-5-5-5--555/6\5-3-3-3-5/6\5-9--9--9--5-5/6\5-7-7-7-5-5/6\5 and repeat

The second guitar is played with tremolo

D-7~~~~~~~~~~~~~5~~~~~~~~~~~~11~~~~~~~~~~~~~~~9~~~~~~~~~~~~

Chourus

D-999-9 D-999999999999999/10\9

A-999-9repeat A-999999999999999/10\9 and repeat

E-777-7 E-777777777777777/8\7

PM... ...............

G---------------------------11-11-11

D-10-10-10------------------9--9--9-

A-10-10-10-9-11-9-7-8-11-9-7--------repeat

E-8--8--8---------------------------

G----11---11---11---12 repeat a few times then play with wah until chourus

D-999--999--999--999

And thats it!

Just like the Doderlein bass tab, here's the guitar tab.

The Intro:

E:---------------------------------------------------------------------

B:---------------------------------------------------------------------

G:--------9---9---9-------10---10-------12---12--14/12----12---12----12

D:-----7----7---7---7---7----7----7/10-10-10-----------10---10----10---

A:---0----------------8---------------0--------------------------------

E:---------------------------------------------------------------------

Chorus: (not 100%)

G:-------4------4------4------4---2-4------2-4------2-4------2-4-----

D:-------4------4------4------4---2-4------2-4------2-4------2-4-----

A:--xxxx-2-xxxx-2-xxxx-2-xxxx-2---0-2-xxxx-0-2-xxxx-0-2-xxxx-0-2-----

E:---------------------------------------------------------------------

Solo:

G:-0/14--10--12--9--7/10---

Well, a friend of mine gave me this on Nephilia..

Another friend of mine said that something sounded wrong...i dunno..

Correct it if its wrong, havent tried it yet:

Em Hm G D

octopus -

Am(palm mute it)

e-

G-1 x4

B-2

D-2

A-

E-

The the F

e-1-1-1-1-1-1-1------1

G-1-1-1-1-1-1-1---1-1

B-2-2-2-2-2-2-2-0-2-2

D-3-3-3-3-3-3-3-0-2-3

A-

E-

Pretty much repeat that except chorus that has Dm

Dm

e-1

G-3

B-2

got some of nihil....

the opening is on the A string

(I'm just going to post the numbers rather than how many times it's played)

it's tremolo picked (really fast picking)

7-9-10-12-5-7-9-10

I don't remember the rest, just power chords, the solo thingy wasn't too hard, I' not finding much time to tab stuff out, I'll try to get this one up in a few days

those plutonium tabs are a bit off,

the chourus is E3 A5 D5 everything else though sounds pretty much right on =)

Sorry I havn't been able get those tabs up, I'm almost odne with colossuem, just don't have the middle part, or the solo.. hell I'll tab it now =P i'm doing it from memory so might be off

A--8h10-0-10h12-0-7

E-0---------------------

then same thing expect the 7 turns to a 6

A--7h8-0-8h10-0-12h10-0-9-0-7-0-3

E-0--------------------------------------

repeats twice I think

disortion guitar

D-3-2

A-3-2

E-1-0

guitar 1 with tremolo picking

A-5-8-7-9-12-15-14-7-3-1

guitar 2 is the same on except on G

or A was moved back one note so they match,

cool part

D-2-xx-x-2-3

A-2-xx-x-2-3

E-0-xx-x-0-1

thats pretty much all I can remember, the second guitar was fairly easy to figure out, i'll get it up here sometime...

Mesusah

D-4-7-2-3-4-8-2-3

A-4-7-2-3-4-8-2-3

E-2-5-0-1-2-6-0-1

E-0-0-2-00-0-2-0-2

then 2 changes to a 3

pantheon

D-16-17-16---16-17-16--16-17-16---13-15-13

A------------14----------14----------14-----------13

Quote:

A--8h10-0-10h12-0-7

E-0---------------------

then same thing expect the 7 turns to a 6

That one sounds more correct than the way I play it, and I have a slide, though it might not be one in the original . I'm starting to get the hang of yours, and it sounds better too .

D--0h2h3------0h2h3--------0h2h3-------

A-----------2-------------1-------------2/7-

E-0---0---0----0---0---0----0---0---0-----

I suck at tabbing, so bear with me, ok?

It goes fluedly, an E before each hammering. A bit difficult to understand that tab..I'll try to explain if it's too confusing.

--0h2h3---

-----------2

-0---0---0-

First the E, then immediatly after the D hammer to 2. Right after hit another on the E and hammer to 3. The rest should be pretty understandable.

Sort Dissiple-Intro

--4--4--5--4--4--5--4--4--5--7--5--4--5--4--------------------------------------

--4--4--5--4--4--5--4--4--5--7--5--4--5--4--------------------------------------

_________________

In Oblivion: (In progress - guitar)

Intro: (which pretty much carries on at a lot of parts)

G:-12--------------

D:---10-9--9-10

A:--------0------

and the guitar melidy through the song I think is

D: 12-10-9--9-10-12

A:----------0

(not all in a sequence some of them are ring notes

Bass television kisses pretty accurate i think not perfect

--12--10--9--10--7----12--10--9--10--7--------------------------------------------

----------------------------------------------12--10--9--10--7----12--10--9--10--7

-----------------------------------------------------------------------------------------

-----------------------------------------------------------------------------------------

-----------------------------------------------------------------------------------------

then it changes a bit

--12--10--9--10--7----12--10--9--10--7--------------------------------------------

----------------------------------------------12--10--9--7--7/9---12--10--9--10--7

-----------------------------------------------------------------------------------------

-----------------------------------------------------------------------------------------

-----------------------------------------------------------------------------------------

Syndefloden bASS gUITAR

section A. 3--3-3--3--3-3--3--3-3--3--3-3-

section B. 3h4-7--3h4-7-7---3h4-7--3h4-7-7 (play twice)

section C-1. -7(x12)--3(x12)--7(x9)-/-9(x3)-3(x12)

Section C-2. 7(x6)--3(x6)--7(x3)-/-9(x3)--3(x6) (play twice)

section D 3-3-4-3-7 (play a bunch o' times)

section E. -4-3-7-6- (play a few times)

then after section E, play section B 4 times, first on thick string, then next string down, then first, the next

string down again

then section C

then D, and E agian, then it goes soft, and i can't get the rest

Nemesis

* - natural harmonics

Main riff

------------------------------------------------------------------------

------------------------------------------------------------------------

------------------------------------------------------------------------

-44***44***44***44***55***55***55***55***-----------

-44***44***44***44***55***55***55***55***-----------

-22***22***22***22***33***33***33***33***-----------

The different chords in the chorus

--------------------------------------------------------

--------------------------------------------------------

-7--5--4--11-------------------------------------------

-5--5--5--9--------------------------------------------

-3--3--3--7--------------------------------------------

--------------------------------------------------------

døderlein acoustic:

intro and chorus: am and dm with some fingers on and off here and there

verse: x022xx x032(1)x x054(33) x032(1)x

little solo on e-string, im only writing the notes: 1-0 3-1 5-3 3-1 ( hammer on\off and slide here and there) just listen to the song.. theres also a small part of the døderlein riff in there somewhere

i got the start of mercurial

its not perfect, but i got this by just meesing around

if you guyus know the right or better way, please post, or the rest of the song

(x1)

-----1--------------------------2------0------

--0-----0--3--0--2--0--3--0------0------0--

-----------------------

----------------------

-----------------------

-----------------------

(x1)

-----1--------------------------------------

--0-----0--3--0--2--0--3--0--2--0--1--0--

-----------------------

----------------------

-----------------------

-----------------------

beginning as good as i can get it

think mercurial intro is:

e:----5----1---0----3-----8----7-------5----1----0----1-----3----0

b:--3----3---3---3-----3----3----3--3----3----3----3----3-----3----3

colloseum Intro Gitar

G | |

D | |

A 5h7 8-8 | 5h7 8-8 | 5h7 8-8

E 0-- 7 | 0-- 6 | 0-- /12

G |

D | 3- 2

A 5h7 8-8-8-/5-5-5-5 | 3 - 2

E 0-- 8-8-7-7 | 1 - 0

Monsun Gitar

A

E---0--6-0--3-0--1---0-1-3-4-3-1

Seigmen-Negativ Bass

D

A

E--4/3--3-3-3-3/2--2-2-2-2/1--1-1-1-1-1-1-1-1

Ta i dypet....

D

A

E---0--0-0--6--6-6--3-3-3-3-3-3-3-3--5-6-5-6

Seigmen-nemesis Bass intro

D

A

E 2-0-2-3-2-3 .... Play over and over...

Ohm-bass

A

E 5-5b6-5-5-5b6-5-5-5b6

Vers

E 5-5--5b6-5 <----play over and over

La meg ligge..

E-3-3-3--3-3-3--3-3-3-3--5-5-5--5-5-5--5-5-5--5-5-5

Here's what I've figured out of Metropolis. The number is just the fret and playing just one string gets boring..so just use a power chord or something. The numbers in parenthesis..I don't think they appear every time, so you will have to listen to the song and tell where yourself, as I have a little trouble figuring it out.

5, 7, 10, 13, (15)

5, 3, 10, 13, (15)

You can listen to the song to hear where you play which part. It might be a bit off, but it sounds okay.

then 16 and 17 changes to 15 16, and 14 to 13

Link to comment
Share on other sites

Var veldig i tvil om jeg skulle prakke p[ alt dette, men siden jeg har sittet en halvtime og copy&pasta tenkte jeg det kanskje var interesse for det her, som sagt mye hull og tull, men se paa det som ca veiledende. Har ikke lest gjennom eller pr;vd noen, bare kopierte alt av tablignende.



has the plutonium tab,,,in case you dont know..

E----------------
B----------------
G----------------
D----------------
A-7-7-7--777/8\7-5-5-5-7/8\7-11-11-11-7-7/8\7-9-9-9-7-7/8\7
E-5-5-5--555/6\5-3-3-3-5/6\5-9--9--9--5-5/6\5-7-7-7-5-5/6\5 and repeat

The second guitar is played with tremolo
D-7~~~~~~~~~~~~~5~~~~~~~~~~~~11~~~~~~~~~~~~~~~9~~~~~~~~~~~~

Chourus
D-999-9 D-999999999999999/10\9
A-999-9repeat A-999999999999999/10\9 and repeat
E-777-7 E-777777777777777/8\7
PM... ...............

G---------------------------11-11-11
D-10-10-10------------------9--9--9-
A-10-10-10-9-11-9-7-8-11-9-7--------repeat
E-8--8--8---------------------------

G----11---11---11---12 repeat a few times then play with wah until chourus
D-999--999--999--999

And thats it!


Just like the Doderlein bass tab, here's the guitar tab.

The Intro:

E:---------------------------------------------------------------------
B:---------------------------------------------------------------------
G:--------9---9---9-------10---10-------12---12--14/12----12---12----12
D:-----7----7---7---7---7----7----7/10-10-10-----------10---10----10---
A:---0----------------8---------------0--------------------------------
E:---------------------------------------------------------------------

Chorus: (not 100%)
G:-------4------4------4------4---2-4------2-4------2-4------2-4-----
D:-------4------4------4------4---2-4------2-4------2-4------2-4-----
A:--xxxx-2-xxxx-2-xxxx-2-xxxx-2---0-2-xxxx-0-2-xxxx-0-2-xxxx-0-2-----
E:---------------------------------------------------------------------


Solo:

G:-0/14--10--12--9--7/10---


Well, a friend of mine gave me this on Nephilia..

Another friend of mine said that something sounded wrong...i dunno..

Correct it if its wrong, havent tried it yet:


Em Hm G D




octopus -
Am(palm mute it)
e-
G-1 x4
B-2
D-2
A-
E-

The the F
e-1-1-1-1-1-1-1------1
G-1-1-1-1-1-1-1---1-1
B-2-2-2-2-2-2-2-0-2-2
D-3-3-3-3-3-3-3-0-2-3
A-
E-
Pretty much repeat that except chorus that has Dm
Dm
e-1
G-3
B-2




got some of nihil....

the opening is on the A string
(I'm just going to post the numbers rather than how many times it's played)
it's tremolo picked (really fast picking)

7-9-10-12-5-7-9-10

I don't remember the rest, just power chords, the solo thingy wasn't too hard, I' not finding much time to tab stuff out, I'll try to get this one up in a few days
those plutonium tabs are a bit off,
the chourus is E3 A5 D5 everything else though sounds pretty much right on =)





Sorry I havn't been able get those tabs up, I'm almost odne with colossuem, just don't have the middle part, or the solo.. hell I'll tab it now =P i'm doing it from memory so might be off

A--8h10-0-10h12-0-7
E-0---------------------
then same thing expect the 7 turns to a 6

A--7h8-0-8h10-0-12h10-0-9-0-7-0-3
E-0--------------------------------------

repeats twice I think

disortion guitar
D-3-2
A-3-2
E-1-0

guitar 1 with tremolo picking
A-5-8-7-9-12-15-14-7-3-1

guitar 2 is the same on except on G
or A was moved back one note so they match,

cool part
D-2-xx-x-2-3
A-2-xx-x-2-3
E-0-xx-x-0-1

thats pretty much all I can remember, the second guitar was fairly easy to figure out, i'll get it up here sometime...

Mesusah
D-4-7-2-3-4-8-2-3
A-4-7-2-3-4-8-2-3
E-2-5-0-1-2-6-0-1

E-0-0-2-00-0-2-0-2
then 2 changes to a 3

pantheon
D-16-17-16---16-17-16--16-17-16---13-15-13
A------------14----------14----------14-----------13






Quote:
A--8h10-0-10h12-0-7
E-0---------------------
then same thing expect the 7 turns to a 6





That one sounds more correct than the way I play it, and I have a slide, though it might not be one in the original . I'm starting to get the hang of yours, and it sounds better too .



D--0h2h3------0h2h3--------0h2h3-------
A-----------2-------------1-------------2/7-
E-0---0---0----0---0---0----0---0---0-----


I suck at tabbing, so bear with me, ok?

It goes fluedly, an E before each hammering. A bit difficult to understand that tab..I'll try to explain if it's too confusing.

--0h2h3---
-----------2
-0---0---0-

First the E, then immediatly after the D hammer to 2. Right after hit another on the E and hammer to 3. The rest should be pretty understandable.




Sort Dissiple-Intro

--4--4--5--4--4--5--4--4--5--7--5--4--5--4--------------------------------------
--4--4--5--4--4--5--4--4--5--7--5--4--5--4--------------------------------------
_________________





In Oblivion: (In progress - guitar)

Intro: (which pretty much carries on at a lot of parts)
G:-12--------------
D:---10-9--9-10
A:--------0------

and the guitar melidy through the song I think is

D: 12-10-9--9-10-12
A:----------0
(not all in a sequence some of them are ring notes





Bass television kisses pretty accurate i think not perfect



--12--10--9--10--7----12--10--9--10--7--------------------------------------------
----------------------------------------------12--10--9--10--7----12--10--9--10--7
-----------------------------------------------------------------------------------------
-----------------------------------------------------------------------------------------
-----------------------------------------------------------------------------------------
then it changes a bit
--12--10--9--10--7----12--10--9--10--7--------------------------------------------
----------------------------------------------12--10--9--7--7/9---12--10--9--10--7
-----------------------------------------------------------------------------------------
-----------------------------------------------------------------------------------------
-----------------------------------------------------------------------------------------






Syndefloden bASS gUITAR

section A. 3--3-3--3--3-3--3--3-3--3--3-3-

section B. 3h4-7--3h4-7-7---3h4-7--3h4-7-7 (play twice)


section C-1. -7(x12)--3(x12)--7(x9)-/-9(x3)-3(x12)


Section C-2. 7(x6)--3(x6)--7(x3)-/-9(x3)--3(x6) (play twice)



section D 3-3-4-3-7 (play a bunch o' times)

section E. -4-3-7-6- (play a few times)


then after section E, play section B 4 times, first on thick string, then next string down, then first, the next

string down again
then section C
then D, and E agian, then it goes soft, and i can't get the rest






Nemesis

* - natural harmonics

Main riff

------------------------------------------------------------------------
------------------------------------------------------------------------
------------------------------------------------------------------------
-44***44***44***44***55***55***55***55***-----------
-44***44***44***44***55***55***55***55***-----------
-22***22***22***22***33***33***33***33***-----------

The different chords in the chorus
--------------------------------------------------------
--------------------------------------------------------
-7--5--4--11-------------------------------------------
-5--5--5--9--------------------------------------------
-3--3--3--7--------------------------------------------
--------------------------------------------------------






døderlein acoustic:

intro and chorus: am and dm with some fingers on and off here and there
verse: x022xx x032(1)x x054(33) x032(1)x
little solo on e-string, im only writing the notes: 1-0 3-1 5-3 3-1 ( hammer on\off and slide here and there) just listen to the song.. theres also a small part of the døderlein riff in there somewhere







i got the start of mercurial
its not perfect, but i got this by just meesing around
if you guyus know the right or better way, please post, or the rest of the song

(x1)
-----1--------------------------2------0------
--0-----0--3--0--2--0--3--0------0------0--
-----------------------
----------------------
-----------------------
-----------------------

(x1)
-----1--------------------------------------
--0-----0--3--0--2--0--3--0--2--0--1--0--
-----------------------
----------------------
-----------------------
-----------------------
beginning as good as i can get it







think mercurial intro is:


e:----5----1---0----3-----8----7-------5----1----0----1-----3----0
b:--3----3---3---3-----3----3----3--3----3----3----3----3-----3----3



colloseum Intro Gitar

G | |
D | |
A 5h7 8-8 | 5h7 8-8 | 5h7 8-8
E 0-- 7 | 0-- 6 | 0-- /12


G |
D | 3- 2
A 5h7 8-8-8-/5-5-5-5 | 3 - 2
E 0-- 8-8-7-7 | 1 - 0





Monsun Gitar


A
E---0--6-0--3-0--1---0-1-3-4-3-1





Seigmen-Negativ Bass

D
A
E--4/3--3-3-3-3/2--2-2-2-2/1--1-1-1-1-1-1-1-1


Ta i dypet....

D
A
E---0--0-0--6--6-6--3-3-3-3-3-3-3-3--5-6-5-6










Seigmen-nemesis Bass intro

D
A
E 2-0-2-3-2-3 .... Play over and over...






Ohm-bass

A
E 5-5b6-5-5-5b6-5-5-5b6



Vers

E 5-5--5b6-5 <----play over and over

La meg ligge..

E-3-3-3--3-3-3--3-3-3-3--5-5-5--5-5-5--5-5-5--5-5-5







Here's what I've figured out of Metropolis. The number is just the fret and playing just one string gets boring..so just use a power chord or something. The numbers in parenthesis..I don't think they appear every time, so you will have to listen to the song and tell where yourself, as I have a little trouble figuring it out.

5, 7, 10, 13, (15)

5, 3, 10, 13, (15)

You can listen to the song to hear where you play which part. It might be a bit off, but it sounds okay.


then 16 and 17 changes to 15 16, and 14 to 13

Link to comment
Share on other sites

  • 8 months later...
 Döderlein

Capo: What ever you like, liker best
capo 1 selv på denne sangen
og seigmen generelt.

Intro:
Am Asus Am Asus Dm Dsus Dm dsus

Asus Csus Em
vender en perle til en stein
döderlein
Asus Csus Em
vender solen om til regn
döderlein
Asus Csus Em
vender en arm til en grein
döderlein
Asus Csus Em
vender skygge om til tegn
döderlein


Am Csus Dm
noen fortjener en god død
döderlein


Asus Csus Em
vender en perle til en stein
döderlein
Asus Csus Em
vender solen om til regn
döderlein
Asus Csus Em
vender en arm til en grein
döderlein
Asus Csus Em
vender skygge om til tegn
döderlein

Am Csus Dm
noen fortjener en god død
döderlein

ett tusen lykter viser vei

ta... min hånd
leg... mitt sinn
ta... meg med
led meg inn

noen fortjener en god død
(ett tusen lykter viser vei)

Retting eller feil
Send til Kennethnaerum@gmail.com

Link to comment
Share on other sites

 

/ = Slide

Main riff:

C A

e||---------------------------------------------------------|

B||---------------------------------------------------------|

D||---------------------------------------------------------|

G||------10---------10--------7-------7-------7-------7-----|

A||---10----10---10----10---7---7---7---7---7---7---7---7---|

E||-8----------8----------5-------5-------5-------5---------|

som et streif av en dråpe

fikk vi lov til å håpe

på de ting som skal komme

inntil livet er omme

streif av en dråpe

E F G

e||-----------------------------------------------------------------|

B||-----------------------------------------------------------------|

D||-----------------------------------------------------------------|

G||-----2-------2-------3-------3-------5-------5-------5-------5---|

A||---2---2---2---2---3---3---3---3---5---5---5---5---5---5---5---5-|

E||-0-------0-------1-------1-------3-------3-------3-------3-------|

Refreng:

e||-----------------------------------------------------------------|

B||-----------------------------------------------------------------|

D||-----------------------------------------------------------------|

G||-10---7---2---3---5----10---7---2---3---5------------------------|

A||-10---7---2---3---5----10---7---2---3---5------------------------|

E||--8---5---0---1---3-----8---5---0---1---3------------------------|

Tone Gitar:

Skru opp på Echo på forsterker

Min må en skru opp Length og Depth på,

er ikke sikker på om det er sånn på alle

e||-----------------------------------------------------------------|

B||-----------------------------------------------------------------|

D||-----------------------------------------------------------------|

G||-----------------------------------------------------------------|

A||-/10--/7--/2--/3--/5--/7--/9--/10--/7--/2--/3--/5--/7--/9--------|

E||-----------------------------------------------------------------|

Om det er noe som skal rettes så bare send mail til: Kennethnaerum@gmail.com

Link to comment
Share on other sites

Create an account or sign in to comment

You need to be a member in order to leave a comment

Create an account

Sign up for a new account in our community. It's easy!

Register a new account

Sign in

Already have an account? Sign in here.

Sign In Now
  • Recently Browsing   0 members

    • No registered users viewing this page.
  • Siste aktive tråder

    • Det er ikke lenge siden en 25 - bulk kostet 12-1300,- hos Evenstad. Den svake krona og prisstigning generelt, har sannelig gjort seg gjeldende.
    • Hei søker vokalist til Calzada, vi hører til i Stavanger.  spiller rock for det meste 
    • Det må du forvente, men prisene har vært betydelig lave når de har tilbud, selv med moms og frakt etc. Men det må du undersøke og ta en totalvurdering på. Spesielt nå som dollarkursen er dårlig, mot NOK. Skal du handle i Norge, må du bare følge med på hva de har av tilbud på de forskjellige nettbutikker/butikker og handle deretter. Det hender det er tilbud på f.eks spesifikke merker, eller "bundle packs".  Vi hadde Strenger.no før som leverte gode priser, men de ble lagt ned.  Her er f.eks 65-69kr per pakke, det mener jeg er helt innenfor. Du finner sikkert flere lignende tilbud til tider. https://evenstadmusikk.no/d-addario/1084076/d-addario-exl110-b25-bulkpakke-25-stk-010-046-pakke-med-25-stk-exl-110?gad_source=1&utm_source=daisycon&utm_medium=affiliate&utm_campaign=daisycon_Onlinepriser.no https://www.musikkhuset.no/products/daddario-exl110-b25-010-046-bulk-25-set?gad_source=1&gclid=Cj0KCQjwpNuyBhCuARIsANJqL9Oid7wNzTU4xgLnLVllxOStnwHxS9wGBKVbHsHRQ3-f9rLxRdLZxtoaAmciEALw_wcB   Ellers kan jeg anbefale Ernie Ball strenger. De er ofte rimeligere hvis du benytter standard-størrelser - men har like god kvalitet som andre "gode strenger".  https://evenstadmusikk.no/ernie-ball/1009722/ernie-ball-eb-2221-regular-slinky-010-046?gad_source=1&gclid=Cj0KCQjwpNuyBhCuARIsANJqL9OfpfJAOtjW1PJjdIAvs6CT9CT-A9EJJeulO5OVlYeEllFcn3AGszgaAjfmEALw_wcB
    • Noen som har prøvd på det? Hva gjorde du og hvordan funka det?
    • Da kom pickupen fra Skottland også, en 1956 Höfner 1505 GR som ble solgt som ekstrautstyr fra Höfner i sin tid. Originalt hadde de 3 meter kabel, men her var kabelen kutta, så jeg skjøta den og satte i jack-input i gitarkroppen "nede til høyre." Innebygd volumbryter som ikke skrapa, og fungerer - så det var grunnen til at det ble denne. Så slipper man potter og flere hull og mer lodding. En forsiktig singlecoil, under 5 Ohm, så man må ta ned mastervolumen på Vox'en før man kobler inn en av Ibanezene 😉 Gitaren er fra 1959, det sto håndskrevet inne i lokket (fant det med speil, lommelykt og mobilkameraet) 19.2.59. Litt uheldig med dremelen da jeg kappa ut hakk i plekterbrettet, men men. Tok mål med brettet på, så måtte jeg flytte festene litt for å få spikrene dypere inn i hullene så brettet skulle sitte fast. Men det har sin egen sjarm det også. Da gjenstår det tidsriktig bridge, og samtidig polere opp bånd og rengjøre og muligens olje inn gripebrettet. Bestefars gamle gyngehest som jeg også har overtatt, og kabel fra PA-høyttaleren skjemmer bildet, men man ser helheten med pickupen likevel.
  • http://www.BILDELERstore.co.no

  • Støtt driften av GitarNorge


  • Https://Www.AutoDELER.co.NO
×
×
  • Create New...

Important Information

By using this site, you agree to our Terms of Use.