Gå til innhold
karl_nybegynner

E-dur blues-skala

Anbefalte innlegg

Hei

Jeg er helt ny her, også ganske fersk på gitar.

Er det noen som kan poste E-dur blues-skalaen? Tar gjerne imot andre generelle skalaer også.

Takker på forhånd

Del dette innlegget


Lenke til innlegg
Del på andre sider

Bluesskalaen er per definisjon i moll. I E ser den slik ut: E G A B H D. Om du på død og liv vil ha den i dur, kan du forsåvidt bytte ut G med G#.

Del dette innlegget


Lenke til innlegg
Del på andre sider


E --------------------------------------------------------------0----3---------
H ---------------------------------------------------0---3---------------------
G -----------------------------------0---2---(3)-------------------------------
D -------------------------0----2----------------------------------------------
A ----------0---(1)---2--------------------------------------------------------
E -0---3-----------------------------------------------------------------------

dette var moll-varienten jeg viste her.. E-Dur blues, er vel det samme som en helt vanlig dur skala om jeg ikke tar fullstendig feil. Men du kan bruke dette mønsteret på dur også, men da bruker du parallelltonearten, dvs en E-dur tilsvarer en C# moll, eller for å ta det med et "enklere" eksempel, en C-Dur tilsvarer en A-moll

Endret av davidsen

Del dette innlegget


Lenke til innlegg
Del på andre sider
|--------------------------9-12-|
|---------------------9-12------|
|----------------9-11-----------|
|-----------9-11----------------|
|------9-11---------------------|
|-9-12--------------------------|

Del dette innlegget


Lenke til innlegg
Del på andre sider

|--------------------------9-12-|
|---------------------9-12------|
|----------------9-11-----------|
|-----------9-11----------------|
|------9-11---------------------|
|-9-12--------------------------|

Han spurte vel etter blues, ikke pentaton.

Del dette innlegget


Lenke til innlegg
Del på andre sider

E- |-----------------------------------------------------12-15------

H- |---------------------------------------------12-15--------------

G- |---------------------------------12-14-15----------------------

D- |-------------------------12-14----------------------------------

A- |-------------12-13-14------------------------------------------

E- | -----12-15------------------------------------------------------

no sånt...

Del dette innlegget


Lenke til innlegg
Del på andre sider

E- |-----------------------------------------------------12-15------

H- |---------------------------------------------12-15--------------

G- |---------------------------------12-14-15----------------------

D- |-------------------------12-14----------------------------------

A- |-------------12-13-14------------------------------------------

E- | -----12-15------------------------------------------------------

no sånt...

Det er en vanlig bluesskala, ja...

Del dette innlegget


Lenke til innlegg
Del på andre sider

E- |-----------------------------------------------------12-15------

H- |---------------------------------------------12-15--------------

G- |---------------------------------12-14-15----------------------

D- |-------------------------12-14----------------------------------

A- |-------------12-13-14------------------------------------------

E- | -----12-15------------------------------------------------------

no sånt...

Det er en vanlig bluesskala, ja...

identisk med den jeg la ut, bare én oktav lavere.

Del dette innlegget


Lenke til innlegg
Del på andre sider

E- |-----------------------------------------------------12-15------

H- |---------------------------------------------12-15--------------

G- |---------------------------------12-14-15----------------------

D- |-------------------------12-14----------------------------------

A- |-------------12-13-14------------------------------------------

E- | -----12-15------------------------------------------------------

no sånt...

Det er en vanlig bluesskala, ja...

identisk med den jeg la ut, bare én oktav lavere.

Men tror du en fersking på gitar vet hvordan man spiller en oktav høyere? Det tok meg en stund før jeg fant ut at alt fra tolvte bånd og oppover var helt likt det som var bak tolvte bånd.

Del dette innlegget


Lenke til innlegg
Del på andre sider

|--------------------------9-12-|
|---------------------9-12------|
|----------------9-11-----------|
|-----------9-11----------------|
|------9-11---------------------|
|-9-12--------------------------|

Han spurte vel etter blues, ikke pentaton.

Oi, sorry, sorry!

|--------------------------------9-12-|
|---------------------------9-12------|
|-------------------9-11-12-----------|
|--------------9-11-------------------|
|------9-10-11------------------------|
|-9-12--------------------------------|

Del dette innlegget


Lenke til innlegg
Del på andre sider

mulig jeg tar feil, men passer ikke bluesskalaen iver alt? bare i foskjellige bånd nedover.... de samme finger settingene

Del dette innlegget


Lenke til innlegg
Del på andre sider

Det fine med både pentaton og bluesskalaen, er at når du spiller dem i moll, så er det bare å flytte skalaen ned tre bånd på halsen for å spille i dur. Så enkelt er det!

Nå må du for all del ikke få inntrykk av at durvarianten av pentatonskalaen og bluesskalaen har forskjellige mønstre fra dem som er i moll. Da snakker jeg om skalamønstre som du ser dem på gitarhalsen. Jeg trodde helt i begynnelsen av hver key hadde sine egne mønstre. F.eks. at E moll hadde sine mønstre og D-moll hadde andre igjen. Om det skulle vært forskjellige mønstre fra dur og moll, og i tillegg hver key, så måtte jeg ha lært meg 120 skalamønstre for å ha halsen dekket. :D

Det finnes kun fem skalamønstre. Bluesskalaen er pentatonskalaen med en note lagt til, ikke to helt forskjellige ting. Bluesskalaen er en pentatonskala med en blånote lagt til.

Nå har ikke du antydet at du ikke vet dette, men jeg sier det fordi en del har postet tab av en skala, og da blir det fort for deg å tenke "aha... E dur blues, da bruker jeg den lille tassen mellom 9. og 12. bånd". Og jeg er er litt forbannet fordi ingen sa dette til meg før, da jeg var fersk. Altså, at det er de samme mønstrene som blir gjenbrukt.

Her har du skalaene:

e_moll_og_dur_penta.gif

Du ser hvordan durpentaton-skalaen er hele mønsteret forskøvet ned tre bånd. Og det går i sirkel (gjentar seg hvert 12. bånd).

Edit: Her er den siste skumle nota på plass:

e_moll_og_dur_blues.gif

Endret av AlexanderT

Del dette innlegget


Lenke til innlegg
Del på andre sider
Bluesskalaen er per definisjon i moll.
Stusset litt på denne her. Har sett durvarianten av bluesskalaen blitt nevnt en god del steder. Det er vel gjerne en gitar inne i bildet da, men allikevel.

Fant dette på Wikipedia:

Blues scales also come in major and minor varieties. The C major blues scale is C-D-D#-E-G-G#-A-C ascending or C-A-Ab-G-E-Eb-D-C descending.

The C minor blues scale is C-Eb-F-F#-G-Bb-B-C ascending or C-B-Bb-G-Gb-F-Eb-C descending. The differences in the up and down versions are only one of musical spelling, e.i. Gb vs F#.

The variations in definitions and use of scales for jazz improv are as numerous and personal as the musicians. The interest lies in seeing the various approaches and trying them out.

Del dette innlegget


Lenke til innlegg
Del på andre sider

Det er vanligst å bruke molltersj på durblues.

Jeg pleier å se på molltersen i bluesscalaen som #9 til den respektive tonica-akkorden.

Det er jo helt greit å bruke durtersen en gang i blant, men ved overdrevent bruk vil blues-preget forsvinne.

Del dette innlegget


Lenke til innlegg
Del på andre sider

Opprett en konto eller logg inn for å kommentere

Du må være et medlem for å kunne skrive en kommentar

Opprett konto

Det er enkelt å melde seg inn for å starte en ny konto!

Start en konto

Logg inn

Har du allerede en konto? Logg inn her.

Logg inn nå

  • Hvem er aktive   0 medlemmer

    Ingen innloggede medlemmer aktive

×
×
  • Opprett ny...

Viktig informasjon

Dette nettstedet bruker cookies for å gi deg en best mulig brukeropplevelse Bruksvilkår.