Gå til innhold
etha

Lillefinger trening.

Anbefalte innlegg

Trenger mer styrke i lillefingeren :)

Mange plasser der du må bruke lillefingeren mye.

En liten ting jeg har funnet på selv er å spille Thunderstruck av Ac/Dc med bare lillefingeren så fort du klarer :P Det er ganske vanskelig og man blir fort sliten ;)

Fant en liten link også: Riff

Om jeg ikke tar feil er vel det der Papa Roach - Last Resort riffet?

Noen som har andre excercises til lillefingeren? Tabs eller links?

Del dette innlegget


Lenke til innlegg
Del på andre sider

Jeg bruker dette for å øve lillefingeren:


---------5-7-8-7-5-------------5-7-8-etc--------
--5-7-8-------------8-7-5-7-8-------------------
------------------------------------------------
------------------------------------------------
------------------------------------------------
------------------------------------------------

Hammer-on/pull-off hele veien, det pleier å hjelpe.

Del dette innlegget


Lenke til innlegg
Del på andre sider

sjekk ut i see the light to night av yngwie... soloen

Del dette innlegget


Lenke til innlegg
Del på andre sider

Jeg bruker dette for å øve lillefingeren:


---------5-7-8-7-5-------------5-7-8-etc--------
--5-7-8-------------8-7-5-7-8-------------------
------------------------------------------------
------------------------------------------------
------------------------------------------------
------------------------------------------------

Hammer-on/pull-off hele veien, det pleier å hjelpe.

Prøv å gjøre det slik istedet, med en ekstra 'trill' mellom lille- og ringfinger:


---------5-7-8-7-8-7-5-------------5-7-8-7-8-7-5-etc----
--5-7-8-----------------8-7-5-7-8--------------------------
--------------------------------------------------------------
--------------------------------------------------------------
--------------------------------------------------------------
--------------------------------------------------------------

Svært effektiv lillefingertrening.

Del dette innlegget


Lenke til innlegg
Del på andre sider

Da blir det jo bare å vri på hånda?

Jeg hadde fulgt Yngtchie og Aiwass sine eksempler (gjerne både med H.O og P.O og uten)

Del dette innlegget


Lenke til innlegg
Del på andre sider

selvom jeg er en "retired" gitarist må det sies at du bør øve å trille mellom lange og lillefingern også, ikke bare ringe og lillefingern. Å spille bluesskalaen med bare pekefingern og lillefingern var en latterlig idé.

Del dette innlegget


Lenke til innlegg
Del på andre sider

Å spille bluesskalaen med bare pekefingern og lillefingern var en latterlig idé.

Hvorfor det? Begrunn uttalelsene dine ;)

Del dette innlegget


Lenke til innlegg
Del på andre sider

det er bare teit ingen som gjør sånn uansettt... øv på il see the light to night den er den beste

Del dette innlegget


Lenke til innlegg
Del på andre sider

Å spille bluesskalaen med bare pekefingern og lillefingern var en latterlig idé.

Hvorfor det? Begrunn uttalelsene dine ;)

Jeg trenger ikke begrunne uttalelsene mine.

Del dette innlegget


Lenke til innlegg
Del på andre sider

selvom jeg er en "retired" gitarist må det sies at du bør øve å trille mellom lange og lillefingern også, ikke bare ringe og lillefingern. Å spille bluesskalaen med bare pekefingern og lillefingern var en latterlig idé.

Fugerer veldig bra på meg ;)

Endret av CrowaX

Del dette innlegget


Lenke til innlegg
Del på andre sider

Det fungerer, men det er litt meningsløst. Fin måte å venne seg til feil fingersetning på...

Del dette innlegget


Lenke til innlegg
Del på andre sider

Ta det med ro, den er ikke skadelig ;) Btw legatoøvelser er fine å bruke til å øveopp lillefingeren :)

Del dette innlegget


Lenke til innlegg
Del på andre sider

prøvde meg på noen av disse øvelsene. Først når jeg gikk gjenom de bare for å memorere hvordan jeg skulle spille det merket jeg ingenting. Men så når jeg økte tempoet kunne jeg kjenne at lillefingeren virkelig ble brukt! Gode øvelser dette her, med tanke på lillefinger, skal prøve å gjøre en eller flere av disse øvelsene min. 5 minutter daglig fra nå av.

Del dette innlegget


Lenke til innlegg
Del på andre sider

Opprett en konto eller logg inn for å kommentere

Du må være et medlem for å kunne skrive en kommentar

Opprett konto

Det er enkelt å melde seg inn for å starte en ny konto!

Start en konto

Logg inn

Har du allerede en konto? Logg inn her.

Logg inn nå

  • Hvem er aktive   0 medlemmer

    Ingen innloggede medlemmer aktive

×
×
  • Opprett ny...

Viktig informasjon

Dette nettstedet bruker cookies for å gi deg en best mulig brukeropplevelse Bruksvilkår.