Gå til innhold
AudioX

gode fingerspill-sanger

Anbefalte innlegg

noen som har noen gode finger spill sanger ala nothing else matters/Cavatina/stairway to heaven

begynner å bli litt lei av å spille de etter hvert å vil se på andre sanger som er ala de tre ;)

Del dette innlegget


Lenke til innlegg
Del på andre sider

kunne tenkt meg å lært against the wind av Jon English sin fingerspill av sangen....men ingen som visste ;)

Del dette innlegget


Lenke til innlegg
Del på andre sider

Jeg liker å spille Dee av Randy Rhoads (Ozzy Osbourne) og noen av de klassiske Emoll låtene som Les Jeux (Spanish Romanza) og en annen jeg ikke husker navnet på. Ellers er August Dawn bra, men vanskelig å få tak i både tabs og selve sangen.

Del dette innlegget


Lenke til innlegg
Del på andre sider

Sure, tok _litt_ tid men ble bra til slutt. Nært perfekt vil jeg si :D

Sjekk den ut på guitartabz.net hvis den blir herpa her:

http://www.guitartabz.net/view/fairclough,...august_dawn.htm

Author/Artist: Steve Fairclough
Title: August Dawn
Transcribed by: Oddgeir Austad (webmaster@ogregod.com)


e|------0---2-------|------0---2-------|------0-----2----0-2-|-4---4---2---0---|
B|------0---0---4---|------0---0---4---|------0-----0--------|-----------------|
G|----1---1---2---2-|----1---1---2---2-|----1----1-----2-1-2-|-4---4---2---1---|
D|------------------|------------------|---------------------|-----------------|
A|------------------|------------------|---------------------|-----------------|
E|-0----------------|-0----------------|-0-------------------|---0---0---0---0-|
Repeat once

e|----------7-------|--------4---------|
B|------5---5---5---|-4--------5---5p4-|
G|------6-------6---|------4-----------|
D|----6---6---6---6-|----4-------6-----|
A|-0----------------|----------4-------|
E|------------------|-4----------------|
Repeat once, then

e|----------7-------|--------4---------|
B|------5---5---5---|-4--------5-----4-|
G|------6-------6---|------4-------5---|
D|----6---6---6---6-|----4-------6-----|
A|-0----------------|----------4-------|
E|------------------|-4----------------|

e|---------0-----0--|-0-----0----------|
B|-------0----------|------------------|
G|-----2-------4----|-----6-------8----|
D|---4-------6------|---7-------9---9--|
A|------------------|------------------|
E|-2-------4--------|-5-------7--------|

Back to start and repeat this whole part once, then continue with:
e|---------0-----0--|-0-----0----------|
B|-------0----------|-------------7----|
G|-----2-------4----|-----6-------8----|
D|---4-------6------|---7---------9----|
A|------------------|------------------|
E|-2-------4--------|-5-----------7----|

e|---------0--------|---------0--------|---------0--------|---------2--------|
B|-----5-------5----|-----5-------5----|-----5-------5----|-----4-------4----|
G|---4---4---4---4--|---4---4---4---4--|---4---4---4---4--|---4---4---4---4--|
D|------------------|------------------|------------------|------------------|
A|-4----------------|------------------|-0----------------|-2----------------|
E|------------------|-4----------------|------------------|------------------|

e|---------7--------|---------7--------|---------7--------|------------------|
B|-----5-------5----|-----5-------5----|-----5-------5----|--5---------------|
G|---4---4---4---4--|---4---4---4---4--|---4---4---4---4--|--6---------------|
D|------------------|------------------|------------------|--7---------------|
A|-4----------------|------------------|-0----------------|------------------|
E|------------------|-4----------------|------------------|--7---------------|


Repeat whole tab without the three last segments, and end with:
e|---------0-----0--|-0-----0--0-------|---------------0~-|
B|-------0----------|----------0-------|---------0-----0~-|
G|-----2-------4----|-----6----8-------|-------1-------1~-|
D|---4-------6------|---7------9-------|-----4---------4~-|
A|------------------|----------9-------|---2-----------2~-|
E|-2-------4--------|-5--------7-------|-0-------------0~-|

Nice piece, add slides where you think it fits or is necessary.

Del dette innlegget


Lenke til innlegg
Del på andre sider

Signe av Clapton er jo også en fiks liten sak som går an å spille for seg selv :P

Del dette innlegget


Lenke til innlegg
Del på andre sider

Radiohead - Street Spirit

Phil Collins - Another Day in Paradise

Del dette innlegget


Lenke til innlegg
Del på andre sider

Opprett en konto eller logg inn for å kommentere

Du må være et medlem for å kunne skrive en kommentar

Opprett konto

Det er enkelt å melde seg inn for å starte en ny konto!

Start en konto

Logg inn

Har du allerede en konto? Logg inn her.

Logg inn nå

  • Hvem er aktive   0 medlemmer

    Ingen innloggede medlemmer aktive

×
×
  • Opprett ny...

Viktig informasjon

Dette nettstedet bruker cookies for å gi deg en best mulig brukeropplevelse Bruksvilkår.