Web Analytics
Jump to content

Trenger tips til solospilling.


Will Reyna
 Share

Recommended Posts

Jeg skal improvisere over et bakrunnsriff på en konsert på stovner rockefabrikk. Bakrunnsriffet går slik;

E|--------------------------------|

H|--------------------------------|

G|--4-4---4-4---4---2-2---5-5---5-|

D|--5-5---5-5---5---4-4---7-7---7-| x4

A|--------------------------------|

E|0-----0-----0---0-----0-----0---|



E|--------------------------------|

H|--------------------------------|

G|--5-5---5-5---5---4-4---7-7---7-|

D|--7-7---7-7---7---5-5---9-9---9-| x4

A|0-----0-----0---0-----0-----0---|

E|--------------------------------|

Det går altså i Em og Am.

Jeg tenkte på noe litt flamenco/spansk-inspirert improvisering, men jeg trenger noen forslag til licks som helt sikkert passer inn, som jeg kan spille nesten når som helst og slikt.

Kanskje et forslag til en melodi jeg kan bruke?

Har sittet og improvisert over riffet ca. en time nå, og jeg synes jeg spiller litt tynt. Jeg trenger et grunnlag eller en grunnmelodi.'

Takker for all hjelp :)

Link to comment
Share on other sites

Jeg ville ha valgt å spille noe basert på hva de andre instrumentene spiller.

Uten å vite noe om det vil jeg foreslå to forskjellige skalaer, altså to skalaer med forskjellige særpreg (ikke a moll og e moll) for å gjøre det litt mer variert og spennende. Men mener fortsatt at den generelle følelsen i låta bør ligge til grunn. Kanskje det er noen som synger eller spiller melodi når du ikke spiller solo?

To skalaer som fungerer som utgangspunkt:

- e harmonisk moll - ren moll med høyt sjuendetrinn

- a dorisk - moll med høyt sjettetrinn

Link to comment
Share on other sites

Det er ikke en sang med vokal eller noe spesiell melodi ellers. Stykke er bare en sammenkoping av forskjellige riff og teknikker. Et sted i stykket, går altså dette bakrunnsriffet som jeg har fått i oppgave og improvisere over.

Så jeg må finne på en melodi selv (eller få tips fra dere :)).

Hvordan går disse skalaene du nevnte? Jeg kan ikke så mange skalaer, skjønner du.

Link to comment
Share on other sites

E harmonisk moll: E F# G A H C D#

E|----------------------------------------------14-15-17-|----------------------------8-11-12-|

H|-------------------------------------13-16-17----------|----------------------8-10-12-------|

G|----------------------------12-14-16-------------------|---------------8-9-11---------------|

D|-------------------13-14-16----------------------------|--------7-9-10----------------------|

A|----------12-14-15-------------------------------------|-7-9-10-----------------------------|

e|-12-14-15----------------------------------------------|------------------------------------|

A dorisk: A H C D E F# G

E|--------------------------------7-8-10-|-------------------------------------14-15-17-|

H|-------------------------7-8-10--------|----------------------------13-15-17----------|

G|-------------------5-7-9---------------|-------------------12-14-16-------------------|

D|-------------5-7-9---------------------|----------12-14-16----------------------------|

A|-------5-7-9---------------------------|-12-14-15-------------------------------------|

e|-5-7-8---------------------------------|----------------------------------------------|

Tabbet de ut med tre toner per streng, håper du ikke har brukt det så mye før. Lettere å spille noe 'nytt' når du ikke har tenkt i slikt mønster før.

Lykke til!

:mrgreen:

Link to comment
Share on other sites

  • 3 weeks later...

Jada, bare å pugge. Har lignende greier, bare at det jeg gjorde var mer blues-aktig, noe som gjorde at jeg kunne dra pentatoniske skalaer opp og ned og i mente. Det samme gjelder vel her og, prøv å finn deg et lite tema du skal holde deg til, tenk ut en veldig enkel melodi, og spill utifra dette, iallefall slik jeg spiller...

Link to comment
Share on other sites

  • 4 weeks later...

Create an account or sign in to comment

You need to be a member in order to leave a comment

Create an account

Sign up for a new account in our community. It's easy!

Register a new account

Sign in

Already have an account? Sign in here.

Sign In Now
 Share

  • Recently Browsing   0 members

    No registered users viewing this page.

×
×
  • Create New...

Important Information

By using this site, you agree to our Terms of Use.