Gå til innhold
MKej

blues sanger

Anbefalte innlegg

Jeg har lyst og lære meg noen skikkelig blues riff og soloer.

noen som vet om noen fette sanger :mellow:

Del dette innlegget


Lenke til innlegg
Del på andre sider

Skaff deg ei dame, bli forelska i ho, vent til ho knuser hjertet ditt så setter du deg ned med gitaren og finner de blåe tonene. La følelsene guide deg ;)

Bare les signaturen min så skjønner du hva jeg vil frem til :)

Men om du ABSOLUTT skal ha det på den dustete måten så sjekk ut Stevie Ray Vaughan ;) Han har mange råe blues riff

  • Liker 1

Del dette innlegget


Lenke til innlegg
Del på andre sider

Skaff deg ei dame, bli forelska i ho, vent til ho knuser hjertet ditt så setter du deg ned med gitaren og finner de blåe tonene. La følelsene guide deg ;)

Bare les signaturen min så skjønner du hva jeg vil frem til :)

Men om du ABSOLUTT skal ha det på den dustete måten så sjekk ut Stevie Ray Vaughan ;) Han har mange råe blues riff

Hahaha

Egentlig ingenting å flire av. Det er vel ganske riktig det han sier ;)

Del dette innlegget


Lenke til innlegg
Del på andre sider

Ikke dumt forslag det, eXX0n. Vi skal alle sikkert gjennom mye forbaska som vil gjøre oss bedre musikere.

Prøv forresten sangen Help The Poor. Robben Ford har en fin versjon av den.

Del dette innlegget


Lenke til innlegg
Del på andre sider

Jeg har en god del bluessanger i de eldste lærebøkene mine fra musikkskolen. Problemet er at de står i noter, og at de faktsik står klistret til boken. Og ikke søren om jeg gidder å begynne å gjøre om det til tablutar.

Men det er vel egentlig ikke det du er ute etter. Det er jo ordentlig blues, det er ikke det, men det er vel mest 12-takter, og ikke noe utfordrende...

Del dette innlegget


Lenke til innlegg
Del på andre sider

-----------------------------------------------------------------------

-----------------------------------------------------------------------

-----------------------------------------------------------------------

------------------------------------2---2---4---4---2---2---4---4--- X - 02

-2---2---4---4---2---2---4---4---0---0---0---0---0---0---0---0---

-0---0---0---0---0---0---0---0--------------------------------------

------------------------------------------------------------------

------------------------------------------------------------------

------------------------------------------------------------------

------------------------------------------------------------------

---9---9---11--11--9--9---11---11---7----7---9---9----7--7----9---9--

---7---7---7---7---7---7---7----7-----5---5---5---5----5---5---5---5---

-----0---------0----------0-----0------------------------------

--3-----3--2-----2---1------1--0------------------------------

-----------------------------------------------------------------

-----------------------------------------------------------------

-----------------------------------------------------------------

-----------------------------------------------------------------

prøv dette. bare å mikse litt på det å kjøre omigjen så mange ganger du vil.

Del dette innlegget


Lenke til innlegg
Del på andre sider

Opprett en konto eller logg inn for å kommentere

Du må være et medlem for å kunne skrive en kommentar

Opprett konto

Det er enkelt å melde seg inn for å starte en ny konto!

Start en konto

Logg inn

Har du allerede en konto? Logg inn her.

Logg inn nå

  • Hvem er aktive   0 medlemmer

    Ingen innloggede medlemmer aktive

×
×
  • Opprett ny...

Viktig informasjon

Dette nettstedet bruker cookies for å gi deg en best mulig brukeropplevelse Bruksvilkår.