Gå til innhold
Agif

Kråkevisa

Anbefalte innlegg

Jup, vi skal lage en versjon av Kråkevisa med bandet, og så trenger vi noter. Noen som har/kan plukke? Den heifara, falturilturaltura-sangen. Om mannen som gikk seg i vedaskog og skøt en kråke.

Opsann, feilposta.

Endret av Agif

Del dette innlegget


Lenke til innlegg
Del på andre sider

Burde vel strengt talt klare å tabbe den selv, menmen....

E||-----------------------------------|--------------------------------------|
B||-----------------------------------|--8----10--8----7---------------------|
G||-------------------11----11--11----|-------------------9--7--9--11----11--|
D||--9----9--9--7--9------------------|--------------------------------------|
A||-----------------------------------|--------------------------------------|
E||-----------------------------------|--------------------------------------|



------------------------------------|-----------------------------------|
------------------------------------|-----------------------------------|
--7--9--11--7--9--11--9--------7----|---------------------11--11--9--7--|
---------------------------11-------|--11----7--9----9------------------|
------------------------------------|-----------------------------------|
------------------------------------|-----------------------------------|



------------------------||
------------------------||
------------------------||
--11----7--9------------||
------------------------||
------------------------||

PS: Fint at det ikke går ann å uplode gp4-filer her da...

vedaskog.gp4

Endret av bove

Del dette innlegget


Lenke til innlegg
Del på andre sider

heller ikkje lett å lese den fra tablatur hvis du ikkje har hørt den. lese du nota?

Del dette innlegget


Lenke til innlegg
Del på andre sider

heller ikkje lett å lese den fra tablatur hvis du ikkje har hørt den. lese du nota?

hvis du legger ut noter så kan man jo legge de inn i gitarpro uansett om man kan lese de eller ikke;)

går det ikke ann og legge ut vedlegg her da?

Del dette innlegget


Lenke til innlegg
Del på andre sider

La ut gp4. Var ikke støtte for det da jeg opprinelig postet posten

Del dette innlegget


Lenke til innlegg
Del på andre sider

Opprett en konto eller logg inn for å kommentere

Du må være et medlem for å kunne skrive en kommentar

Opprett konto

Det er enkelt å melde seg inn for å starte en ny konto!

Start en konto

Logg inn

Har du allerede en konto? Logg inn her.

Logg inn nå

  • Hvem er aktive   0 medlemmer

    Ingen innloggede medlemmer aktive

×
×
  • Opprett ny...

Viktig informasjon

Dette nettstedet bruker cookies for å gi deg en best mulig brukeropplevelse Bruksvilkår.