Gå til innhold
Agurken

diverse tabs hjelp?

Anbefalte innlegg

Kan nåken tabbe/ Chors til

Odd Nordstoga - Farvel til deg

Odd Nordstoga - Hallo Hallo

Odd Nordstoga - Orda du gav meg

Odd Nordstoga - Lause ting

Odd Nordstoga - Linus i svingen

Odd Børretzen - Måker

Leif og Kompisane - Morgen Herlige (ikkje den fra Naagla, den va kje så bra)

De Lillos - Ut

James Blunt - You're Beautiful

Kjartan Salvesen - Viking e tebake (2002 versjonen, ikkje den med cup)

Og nåken så har tips til lette sanger, siden er ikke så dyktige på gitaren....legg link til tabs eller post..

kan noen legge ut blues riff eller standar blues beats....

-----------

-----------

-----------

------2-4-

-2-4-0-0-

-0-0------

Ikke denne

og

Alejandro Fuentes - Stars

Alejandro Fuentes - Sail away

Del dette innlegget


Lenke til innlegg
Del på andre sider

En enkel blues intro kan være:

---4------3------2-------0-------------------------

--------------------------0-------------------------

-4--4---3--3--2---2-----1-------------------------

--------------------------------------------------

-------------------------------------0---1---2-----

--------------------------------------------------

Ett riff som en kan bruke mellom vers:

---0-------0-------0-----------------------------

-3---3--2----2--1---1--0-----------------------

---------------------------------------------------

---------------------------------------------------

-----------------------------0--1--2--------------

---------------------------------------------------

Ellers brukes A,E,D og H7 veldig ofte. Er ikke så stø på gitarteori, men TROR disse er grunntoner. Finner dem igjen i bluesskalaen.

H7 tar jeg som grep, mens jeg tar de andre akkordene slik som du satte opp A og E.

A:

---------------------------------------------------

---------------------------------------------------

-----------------------------------------------------

--2-2---4--4---------------------------------------

--0-0---0--0---------------------------------------

----------------------------------------------------

E:

---------------------------------------------------

---------------------------------------------------

-----------------------------------------------------

----------------------------------------------------

--2-2---4--4---------------------------------------

--0-0---0--0---------------------------------------

D:

---------------------------------------------------

---------------------------------------------------

--2-2---4--4-------------------------------------

--0-0---0--0-------------------------------------

---------------------------------------------------

---------------------------------------------------

Disse kan også bruke i mer rock format. Se Johnny B. Goode. Da spiller du de selvsagt litt fortere og en bruker et mer rockekomp på de. Bare prøv deg fram. Håper tabsa er leselige, er ikke så flink til å skrive slike :unsure:

Håper noe av dette hjelper deg videre.

-Pontus

Del dette innlegget


Lenke til innlegg
Del på andre sider

Opprett en konto eller logg inn for å kommentere

Du må være et medlem for å kunne skrive en kommentar

Opprett konto

Det er enkelt å melde seg inn for å starte en ny konto!

Start en konto

Logg inn

Har du allerede en konto? Logg inn her.

Logg inn nå

  • Hvem er aktive   0 medlemmer

    Ingen innloggede medlemmer aktive

×
×
  • Opprett ny...

Viktig informasjon

Dette nettstedet bruker cookies for å gi deg en best mulig brukeropplevelse Bruksvilkår.