Gå til innhold
ramb00m

Trenger en øvelse

Anbefalte innlegg

En lett sweeping-øvelse som begynner nedover mot den tynneste strengen og går oppover, gjerne bare et riff som kan repeteres til det mestres. Har aldri vært borti sweeping, men kan basics, så jeg trenger et riff.

Post gjerne sweeping-tips til en sweepe-nybegynner!

Del dette innlegget


Lenke til innlegg
Del på andre sider

Disse er enkle:

|----------------12-17-12----------------|

|-------------13----------13-------------|

|----------14----------------14----------|

|-------14----------------------14-------|

|-12-15----------------------------15-12-|

|----------------------------------------|

|-15-12----------------12-17-15----------------15-|

|-------13----------13----------16----------16----|

|----------14-12-14----------------17-14-17-------|

|-------------------------------------------------|

|-------------------------------------------------|

|-------------------------------------------------|

Kopier teksten og lim det inn i et Word-dokument og sett på skrifttype "Courier New". Da ser du.

Del dette innlegget


Lenke til innlegg
Del på andre sider

Disse er enkle:



|----------------12-17-12----------------|

|-------------13----------13-------------|

|----------14----------------14----------|

|-------14----------------------14-------|

|-12-15----------------------------15-12-|

|----------------------------------------|





|-15-12----------------12-17-15----------------15-|

|-------13----------13----------16----------16----|

|----------14-12-14----------------17-14-17-------|

|-------------------------------------------------|

|-------------------------------------------------|

|-------------------------------------------------|



Kopier teksten og lim det inn i et Word-dokument og sett på skrifttype "Courier New". Da ser du.

Eller bare vis tekste i code-formatering :wink:

Del dette innlegget


Lenke til innlegg
Del på andre sider

nå vet jeg hva ''code'' er :P

 

-----------------12--14-16--18 (19)-----------------------------------------------------------14--------------------------------------------------------------------------------16-------------------------------------------------------------------------------18--------------------------------------------------------------------------------------------------------------------------------------------------------------------------------------------------------------------------------------------------------

såå tilbake igjen... petrucci tar den i under a glass moon  ...  så tilbake igjen... den med runding rundt er tapping

Del dette innlegget


Lenke til innlegg
Del på andre sider

Takk!

Gjerne litt tips, hint..?

Du kan få en øvelse jeg pleier å gjøre, og variasjoner av denne. En finger per bånd.

Forøvrig også god til vanlig Alternate picking.


-7--------------------------------10-
--8---7---------------------10---9---
---9---8----7---------10---9----8----
----10--9----8-------9----8----7-----
---------10---9-----8----7-----------
---------------10--7-----------------

Tips:

1. METRONOM.

2. METRONOM. Jeg mener det. Sweeping er sjelden tøft hvis det ikke er i takt.

3. Ta deg god tid. Ting tar tid, og Rom var ikke bygget på en dag.

4. Heller målrettet øving i 20 minutt enn noodling i en time.

Lykke til :)

Del dette innlegget


Lenke til innlegg
Del på andre sider

Opprett en konto eller logg inn for å kommentere

Du må være et medlem for å kunne skrive en kommentar

Opprett konto

Det er enkelt å melde seg inn for å starte en ny konto!

Start en konto

Logg inn

Har du allerede en konto? Logg inn her.

Logg inn nå

  • Hvem er aktive   0 medlemmer

    Ingen innloggede medlemmer aktive

×
×
  • Opprett ny...

Viktig informasjon

Dette nettstedet bruker cookies for å gi deg en best mulig brukeropplevelse Bruksvilkår.