Gå til innhold
surbz00r

Øystein Sunde

Anbefalte innlegg

Hei.

Noen som kan hjelpe meg med å finne noen tabs til Øystein Sunde sanger? Finner det ikke noen steder...

Del dette innlegget


Lenke til innlegg
Del på andre sider

http://www.911tabs.com/tabs/o/oystein_sunde/

Jaktprat



Tekst og melodi: Øystein Sunde (fra "1001 Fnatt", 1970)





Spill ca. dette gjennom hele sangen samtidig som man synger (prater)

teksten:



   G     C   D

|-----3---3------3---3-|----0---0------0---0-|----2---2----2---2-|

|-------0----------0---|------1----------1---|------3--------3---|

|-----0----------0-----|----0----------0-----|-------------------|

|----------------------|-----------0h2-------|--0--------1-------|

|------------0h2-------|--3------------------|-------------------|

|---3------------------|---------------------|-------------------|



    G   C

|-----2---2------------|-----3--3----3---3---|----0---0----0---0-|

|-------3--------------|------0--------0-----|------1--------1---|

|----------------------|--0------------------|----0--------0-----|

|---2--------4----0----|-----------3---------|--2--------1-------|

|----------------------|---------------------|-------------------|

|----------------------|---------------------|-------------------|



   D     G

|-----2---2------------|----3---3------------|--------3----------|

|-------3--------------|------0--------------|--------0----------|

|-----2----------------|----0----------------|--0-----0----------|

|---0------------------|---------------0h2---|-------------------|

|------------2p0-------|-----------0h2-------|-------------------|

|-----------------2----|--3------------------|-------------------|





Teksten er lang, så dere får finne frem coveret til CDen og skrive

den ned selv.







************************************

* NÅLGA - Norsk ÅnLain Gitar Arkiv *

*   http://home.no.net/naalga      *

************************************

Og diverse chords er her: http://home.no.net/berglove/naalga/Oeystein/

Del dette innlegget


Lenke til innlegg
Del på andre sider

Opprett en konto eller logg inn for å kommentere

Du må være et medlem for å kunne skrive en kommentar

Opprett konto

Det er enkelt å melde seg inn for å starte en ny konto!

Start en konto

Logg inn

Har du allerede en konto? Logg inn her.

Logg inn nå

  • Hvem er aktive   0 medlemmer

    Ingen innloggede medlemmer aktive

×
×
  • Opprett ny...

Viktig informasjon

Dette nettstedet bruker cookies for å gi deg en best mulig brukeropplevelse Bruksvilkår.