Gå til innhold
Knopfler-Kis

Clapton sin Little Wing, anyone...?

Anbefalte innlegg

Noen som har tabs til Clapton sin fremføring av Little Wing?

Han spiller den sammen med Sheryl Crowe på "Eric Clapton & Friends in Concert" DVD'n...

Takker for svar :)

Del dette innlegget


Lenke til innlegg
Del på andre sider
e---------------------------------

B---------------------------------

G--9--9-9-9--9-9-9--x-x-10--7--9--

D--9--9-9-9--9-9-9--x-x-10--7--9--

A--7--7-7-7--7-7-7--x-x--8--5--7--

E---------------------------------

Del dette innlegget


Lenke til innlegg
Del på andre sider

Little Wing er en fin sang ja!

Ihvertfall Jimi Hendrix sin. Men det noen som har tabs til den? Får den bare nesten til...

Del dette innlegget


Lenke til innlegg
Del på andre sider
Little Wing er en fin sang ja!

Ihvertfall Jimi Hendrix sin. Men det noen som har tabs til den? Får den bare nesten til...

little wing er vel den sangen det finnes flest tabs til;) men det ligger ikke så mange andre sine versjoner ut enn akkurat hendrix sin... SRV, Hammet, Clapton - lista er lang over folk som har pludra med den sangen :wink: tidenes gitarlåt uten tvil!

Del dette innlegget


Lenke til innlegg
Del på andre sider
e---------------------------------

B---------------------------------

G--9--9-9-9--9-9-9--x-x-10--7--9--

D--9--9-9-9--9-9-9--x-x-10--7--9--

A--7--7-7-7--7-7-7--x-x--8--5--7--

E---------------------------------

vil dette si at introsoloen begynner på 7. bånd, A-streng...?

www.dårliggehør.no :mrgreen:

Del dette innlegget


Lenke til innlegg
Del på andre sider

Opprett en konto eller logg inn for å kommentere

Du må være et medlem for å kunne skrive en kommentar

Opprett konto

Det er enkelt å melde seg inn for å starte en ny konto!

Start en konto

Logg inn

Har du allerede en konto? Logg inn her.

Logg inn nå

  • Hvem er aktive   0 medlemmer

    Ingen innloggede medlemmer aktive

×
×
  • Opprett ny...

Viktig informasjon

Dette nettstedet bruker cookies for å gi deg en best mulig brukeropplevelse Bruksvilkår.