Gå til innhold
Enter

Våkn opp

Anbefalte innlegg

Seff :D ApoteX har det meeeste! :P

VÂkn opp

- Marius Müller





Transkribert av: Tom Fredrik Kjesbu



Hentet fra: http://www.hampusweb.com/marius/





hentet fra plata "Seks" av Marius M¸ller



s = slide

sd= slide down

pb= pre-bend

b = bend

r = release

h = hammer on

p = pull off



(1)

E----------------------------------------------------------------------------

H------11-12---11-b-(12)-r-11---------------s-12-9---------------------------

G----------------------------11--------------------9---11-8------------------

D----13------------------------11-h-13-11-sd---------9------9----------------

A-11----------------------------------------------------------9-s-7-9-s-11-9-  

E----------------------------------------------------------------------------





E----------------------------------------------------------------------------

H------11-12---11-b-(12)-r-11---------------s-12-9---------------------------

G----------------------------11--------------------9---11-8------------------

D----13------------------------11-h-13-11-sd---------9------9----------------

A-11----------------------------------------------------------9-s-7-9-s-11-9-  

E----------------------------------------------------------------------------





E--14-sd---------------------------------------------------------------------

H----------------------------------------------------------------------------

G-----------3-4-6-s-8-s-6-4-3------------3-4-6-4-p-3-------------------------

D----------------------------4-s-2-s-4-4-------------6-4-6-b-(8)-r-6-(8)-----

A----------------------------------------------------------------------------

E----------------------------------------------------------------------------

 (0.26)



E----------------------------------------------------------------------------

H-------------------------------12-11-b-(12)-r-11----9------11-12-14-b-(16)--

G-3-4-6-s-8-s-6-4-3-------------------------------11---9---------------------

D------------------4-s-2-s-4-4---------------------------11------------------

A----------------------------------------------------------------------------

E----------------------------------------------------------------------------

                                                           (0.52)



E----------------------------------------------------------------------------

H-r-14-12-11----------------------12-14-12-11--------------------------------

G------------11-s-9-s-11-13-b-(15)------------13-11-13-b-(15)-r-13-b-(15)----

D----------------------------------------------------------------------------

A----------------------------------------------------------------------------

E----------------------------------------------------------------------------





E----------------------------------------------------------------------------

H--11-12-14-b-(16)-r-14-12-11-------------12-11-b-(12)-r-11------9-----------

G----------------------------11-s-9-s-11--------------------11-9---11--------

D----------------------------------------------------------------------------

A----------------------------------------------------------------------------

E----------------------------------------------------------------------------





E----------------------------------------------------------------------------

H-12-9--------9-12-b-(14)-r-12-12-12-12-11-b-(12)-r-11-b-(12)-11-------------

G------9----9----------------------------------------------------11-3-b-(4)-r

D--------11------------------------------------------------------------------

A----------------------------------------------------------------------------

E----------------------------------------------------------------------------

(1.16)



E------------------------------------------------------------------12-----12-

H----------------------------------12-9--------9-14-b-(16)-r-14-14----9-12---

G-3-------------------------------------9----9-------------------------------

D---4-------------------------------------11---------------------------------

A-----4-h-6-4-b-(6)-r-4-b-(6)-r-4~-------------------------------------------

E----------------------------------------------------------------------------

     (1.29)             (1.36)





E-11------11-11------11-12------12-14-h-(16)-p-14-h-(16)-p-14-h-(16)-p-14-h--

H------12-------9-12-------9-12----------------------------------------------

G----9-----------------------------------------------------------------------

D----------------------------------------------------------------------------

A----------------------------------------------------------------------------

E----------------------------------------------------------------------------

                                  (1.41)



E-(16)-p-14-h-(16)-p-14-h-(16)-p-14-h-(16)-p-14-h-(16)-p-14-h-(16)-p-14~-----

H----------------------------------------------------------------------------

G----------------------------------------------------------------------------

D----------------------------------------------------------------------------

A----------------------------------------------------------------------------

E----------------------------------------------------------------------------

                                                                  (1.46)



E----------------------------------------------------------------------------

H----------------------------------------------s-9-9-s-5-5-5-s-12-12-12-s-11-

G-9-h-11-11-p-9-9-s-8-9--8-9-8-h-9-p-8-s-4-s-6-------------------------------

D----------------------------------------------------------------------------

A----------------------------------------------------------------------------

E----------------------------------------------------------------------------





E--------------------------------------------------------------------------12

H-11-b-(12)-r-11--14-12-11-b-(12)-r-11-s-7----------------------------s-16---

G------------------------------------------9-8-8-----------------------------

D------------------------------------------------9-9-s-8-8-------------------

A----------------------------------------------------------9-s-7-s-9-9-------

E----------------------------------------------------------------------------

                (2.01)                                           (2.07)



E----12---12---12---12---12---12---12---16-b-(19)-19-------------------------

H-16---16---16---16---16---16---16---16----------------12-11-b-(12)-r-11-----

G-----------------------------------------------------------------------11-8-

D----------------------------------------------------------------------------

A----------------------------------------------------------------------------

E----------------------------------------------------------------------------

                                                (2.13)



E----------------------------------------------------------------------------

H----------------------------------------------------------------------------

G-8-h-9-8----------------11--11-11-11-9-h-11-11-b-(13)-r-11-s-9-8-9-h-8-s-4-4

D---------11-p-9-h-11-11-----------------------------------------------------

A----------------------------------------------------------------------------

E----------------------------------------------------------------------------





E----------------------------------------------------------------------------

H---------------------------12-14--------------------------------------------

G-s-6-6------11-13-13-b-(15)------13-b-(15)-r-13-11---13-b-(15)-r-13-b-(15)--

D--------s-13---------------------------------------13-----------------------

A----------------------------------------------------------------------------

E----------------------------------------------------------------------------





E--------------------------------------------s-11-12-------11-12-------------

H-----------------12-11-b-(12)-r-11------9-----------10-12-------10-12-------

G-11-s-9-9-s-11---------------------11-9---11-------------------------s-9-11-

D----------------------------------------------------------------------------

A----------------------------------------------------------------------------

E----------------------------------------------------------------------------

              (2.32)                         (2.35)



E-----------------------------9-11-12-12-b-(14)-11-12-14-14-b-(16)r(15)b(16)-

H------------------12-b-(14)-------------------------------------------------

G-11-b-(13)-sd-----------------------------------------------------------

D----------------------------------------------------------------------------

A----------------------------------------------------------------------------

E----------------------------------------------------------------------------

                 (2.49)



E-14-b-(16)-r-(14)-12--------------------------------------------------------

H---------------------12--------5------------------------4-s-5-5-s-7-7-s-9-9-

G------------------------11-------6----------------4-h-6---------------------

D---------------------------14------6--------4-h-6---------------------------

A-------------------------------------7-6-4----------------------------------

E----------------------------------------------------------------------------

                                            (3.02)



E-----------------------------------s-12-11----------------------------------

H-h-7-7-7-9-10-9-10-pb-(12)-r-10------------12-------------------------------

G----------------------------------------------11----------------------------

D--------------------------------9----------------13-b-(14)-r-13----------13-

A----------------------------------------------------------------11-11-14----

E----------------------------------------------------------------------------

                                    (3.10)



E------------------------12-14-b-(16)-(16)-r-14-12-s-14-12-12-11-------------

H---------------12-h-14------------------------------------------12-12--12---

G-11----11-h-13--------------------------------------------------------------

D----13----------------------------------------------------------------------

A----------------------------------------------------------------------------

E----------------------------------------------------------------------------





E--------------------------------------------------------------------------14

H-10-p-9-----------------------------9-s-10-s-9-------------------------12---

G--------11-p-9---------------9-h-11------------11-p-9--------9-11-s-13------

D---------------11-p-9-9-h-11--------------------------9-h-11----------------

A----------------------------------------------------------------------------

E----------------------------------------------------------------------------

 (3.23)



E-b-(16)-r-14-p-12-14-b-(16)-r-14-12-14-12-14-b-(16)-14-b-(16)r(15)b(16)-----

H----------------------------------------------------------------------------

G----------------------------------------------------------------------------

D----------------------------------------------------------------------------

A----------------------------------------------------------------------------

E----------------------------------------------------------------------------

                                                                     (3.35)



E------------------------------

H-12-11-b-(12)-r-11------9-----

G-------------------11-9---11--

D------------------------------

A------------------------------

E------------------------------





E----------------------------------------------------------------------------

H----------------------------------------------------------------------------

G--3-4-6-s-8-s-6-4-3-------------3-4-6-4-p-3---------------------------------

D--------------------4-s-2-s-4-4-------------6-4-6-b-(8)-r-6-(8)-------------

A----------------------------------------------------------------------------

E----------------------------------------------------------------------------

 (3.40)



E----------------------------------------------------------------------------

H-------------------------------12-11-b-(12)-r-11----9---------------12-14-b-

G-3-4-6-s-8-s-6-4-3-------------------------------11---9---------------------

D-------------------4-s-2-s-4-4--------------------------11-13-b-(15)--------

A----------------------------------------------------------------------------

E----------------------------------------------------------------------------

                                                            (4.05)



E----------------------------------------------------------------------------

H-(16)-r-14-12-11----------------------12-14-12-11---------------------------

G----------------11-s-9-s-11-13-b-(15)------------13-11-13-b-(15)-r-13-b-(15)

D----------------------------------------------------------------------------

A----------------------------------------------------------------------------

E----------------------------------------------------------------------------





E----------------------------------------------------------------------------

H--11-12-14-b-(16)-r-14-12-11-------------12-11-b-(12)-r-11------9-----------

G----------------------------11-s-9-s-11--------------------11-9---11-11-s-6-

D----------------------------------------------------------------------------

A----------------------------------------------------------------------------

E----------------------------------------------------------------------------

                                         (4.26)



Stay tuned! TFK feb 2001







************************************

* NÅLGA - Norsk ÅnLain Gitar Arkiv *

*   http://home.no.net/naalga      *

************************************

Del dette innlegget


Lenke til innlegg
Del på andre sider

Hei, lurte på om det var noen som hadde flere tabs av Muller??

Kan dere legge de ut her?

På forhånd takk

Del dette innlegget


Lenke til innlegg
Del på andre sider

Opprett en konto eller logg inn for å kommentere

Du må være et medlem for å kunne skrive en kommentar

Opprett konto

Det er enkelt å melde seg inn for å starte en ny konto!

Start en konto

Logg inn

Har du allerede en konto? Logg inn her.

Logg inn nå

  • Hvem er aktive   0 medlemmer

    Ingen innloggede medlemmer aktive

×
×
  • Opprett ny...

Viktig informasjon

Dette nettstedet bruker cookies for å gi deg en best mulig brukeropplevelse Bruksvilkår.