Web Analytics
Jump to content

Brides Of Destruction- i dont care


Recommended Posts

Legger ihvertfall ut gitartabs! ;)

Mxtabs [http://www.mxtabs.net]

i dont care

brides of destruction



b- bend

/- slide up

- slide down





intro

e---------------------------------------------------------------

b---------------------------------------------------------------

g--9-9-9-9-7------------------------------------------------13b-

d--9-9-9-9-7--7-7-7-7-5--10-10-10-10--13-13-12-13--13-12-13-----

a--7-7-7-7-5--7-7-7-7-5--10-10-10-10--13-13-12-13--13-12-13-----

e-------------5-5-5-5-3---8--8--8--8--11-11-10-11--11-10-11-----



e---------------------------------------------------------------

b-----------------------------------------------------------13b-

g--9-9-9-9-7----------------------------------------------------

d--9-9-9-9-7--7-7-7-7-5--10-10-10-10--13-13-12-13--13-12-13-----

a--7-7-7-7-5--7-7-7-7-5--10-10-10-10--13-13-12-13--13-12-13-----

e-------------5-5-5-5-3---8--8--8--8--11-11-10-11--11-10-11-----



e-----------------------------------------------------------------------------

b-----------------------------------------------------------------------------

g--9-9-9-9-7------------------------------------------------------------------

d--9-9-9-9-7--7-7-7-7-5--10-10-10-10--13-13-12-13--1312--1312--1312--1312-

a--7-7-7-7-5--7-7-7-7-5--10-10-10-10--13-13-12-13--1312--1312--1110--1110-

e-------------5-5-5-5-3---8--8--8--8--11-11-10-11--1110--1110---------------



verse

  PM-------------|                     PM------------|

e--------------------------------------------------------------------------------

b----------------------------------------------------------------------------13b-

g----------------------------------------------------------------------------13b-

d--7-7-7-7-7-7-7-7---13-13-13-13-13-12---7-7-7-7-7-7-7-7---13-13-13-13-13-12-----

a--7-7-7-7-7-7-7-7---13-13-13-13-13-12---7-7-7-7-7-7-7-7---13-13-13-13-13-12-----

e--5-5-5-5-5-5-5-5---11-11-11-11-11-10---5-5-5-5-5-5-5-5---11-11-11-11-11-10-----



pre chorus- x2

e----------------------------------

b----------------------------------

g--7/9-9-9-9--7/9-9-9-9------------

d--7/9-9-9-9--7/9-9-9-9--7-7-7-5-5-

a--5/7-7-7-7--5/7-7-7-7--7-7-7-5-5-

e------------------------5-5-5-3-3-



e-----------------------------------------------------

b-----------------------------------------------------

g-----------------------------------------------------

d-----------------------------------------------------

a--13-13-13-13--12-12-12-12--11-11-11-11--10-10-10-10-

e--11-11-11-11--10-10-10-10---9--9--9--9---8--8--8--8-



chorus- x4

e---------------------------------------------------------------

b---------------------------------------------------------------

g--9-9-9-9-7------------------------------------------------13b-

d--9-9-9-9-7--7-7-7-7-5--10-10-10-10--13-13-12-13--13-12-13-----

a--7-7-7-7-5--7-7-7-7-5--10-10-10-10--13-13-12-13--13-12-13-----

e-------------5-5-5-5-3---8--8--8--8--11-11-10-11--11-10-11-----



e---------------------------------------------------------------

b-----------------------------------------------------------13b-

g--9-9-9-9-7----------------------------------------------------

d--9-9-9-9-7--7-7-7-7-5--10-10-10-10--13-13-12-13--13-12-13-----

a--7-7-7-7-5--7-7-7-7-5--10-10-10-10--13-13-12-13--13-12-13-----

e-------------5-5-5-5-3---8--8--8--8--11-11-10-11--11-10-11-----







Link to comment
Share on other sites

Create an account or sign in to comment

You need to be a member in order to leave a comment

Create an account

Sign up for a new account in our community. It's easy!

Register a new account

Sign in

Already have an account? Sign in here.

Sign In Now
  • Recently Browsing   0 members

    • No registered users viewing this page.
×
×
  • Create New...

Important Information

By using this site, you agree to our Terms of Use.