Gå til innhold
$$$$$

Turbonegro - high on the crime

Anbefalte innlegg

halloen er det noen her som har tabs til high on the crime med turbonegro :wink:

Del dette innlegget


Lenke til innlegg
Del på andre sider
#----------------------------------PLEASE NOTE---------------------------------#

#This file is the author's own work and represents their interpretation of the #

#song. You may only use this file for private study, scholarship, or research. #



---------------------------------------------

Song: High On The Crime

By: Turbonegro

Transcribed: HitzCore from HGSD

HitzCore@hotmail.com

---------------------------------------------  









Main riff



|--1--4--6--4--|

|--1--4--6--4--|

|--1--7--6--6--|

|--3--6--8--6--|

|--3--6--8--4--|

|--1--4--6--4--|



Bridge



|--4--6--1--|

|--4--6--1--|

|--6--6--1--|

|--6--8--3--|

|--4--8--3--|

|--4--6--1--|



Bridge variation into refrain



|--4--6--6--3--6--3---8--4--6--6--|

|--4--6--6--3--6--3---8--4--6--6--|

|--6--6--8--5--8--5--10--5--8--6--|

|--6--8--8--5--8--5--10--6--8--8--|

|--4--8--6--3--6--3---8--6--6--8--|

|--4--6--6--3--6--3---8--4--6--6--|



Refrain



|---8--4--6--6--|

|---8--4--6--6--|

|--10--5--8--6--|

|--10--6--8--8--|

|---8--6--6--8--|

|---8--4--6--6--|



Bridge from refrain to main riff



|---8--6--3--1--4--|

|---8--6--3--1--4--|

|--10--8--5--3--5--|

|--10--8--5--3--6--|

|---8--6--3--1--6--|

|---8--6--3--1--4--|

Del dette innlegget


Lenke til innlegg
Del på andre sider

Opprett en konto eller logg inn for å kommentere

Du må være et medlem for å kunne skrive en kommentar

Opprett konto

Det er enkelt å melde seg inn for å starte en ny konto!

Start en konto

Logg inn

Har du allerede en konto? Logg inn her.

Logg inn nå

  • Hvem er aktive   0 medlemmer

    Ingen innloggede medlemmer aktive

×
×
  • Opprett ny...

Viktig informasjon

Dette nettstedet bruker cookies for å gi deg en best mulig brukeropplevelse Bruksvilkår.