Web Analytics
Jump to content

vamp med Tir ná noir


Recommended Posts

aldri hørt om den sangen..

Her er notene, men klarer ikkje fingerspillet.....

D Hm Em G

Det e svart november, havet knuse mot strand

D Hm Em A

ein forliste drøm fra et sommargrønt land.

D Hm Em G D

Men eg huske endå vakre Mary McKear

D Hm Em D

Longt vest I Tir n`a Noir

D Hm Em A

Va du drøm? Va du te? Va du hud? Va du blod?

D/F# G Em A

Eg kan hørra deg le. Eg kan huska eg lo

D Hm Em G

Bakom horisontar så forvitra og glir

Hm Em A D

e du mi, mi Mary McKear.

Har du hørt om vamp, har du hørt om den :D

Hvis noen vil høre fins den her:

http://www.major.musikkonline.no/shop/disp...um.asp?id=14224

(det er den første sangen.)

Setter stor pris på hjelp!

Kalle

Link to comment
Share on other sites

jeg kan det jeg. men orker ikke tabbe de :) sorry

Må si meg ening med Mr.CobainFan, at det er ikke noe vits å si at du skryter av at mestrer den.

Jeg gidder ikke skryte over de sangene jeg kan, men jeg spørr om noen kan hjelpe meg med noe jeg ikke får til selv, og da forventer jeg et bedre svar enn som så.

Så hvis du en gang gidder, så setter jeg pris på et lite hint.

Bare den første linjen er bedre enn ingenting..

Kalle

Link to comment
Share on other sites

  • 11 months later...
Lurer på om noen har funnet en fingerspill til denne nå' date=' leter jeg også.

(Vet det er gammel post men,hvorfor lage en ny)[/quote']

Jepp det er sant!

Jeg har lett og lett og lett men uten hell.

Så håpet er nesten ute... :cry:

Setter stor pris på hjelp til denne sangen!

Ps: tHeMuTh|n

Du kan få lov å åpne kjeften hvis du vil!! :P

Torfinn

Link to comment
Share on other sites

atte, den ligger på www.mysongbook.com faktisk.. men man må ha guitarpro for å spille av låtene. Men jeg skal se om jeg ikke klarer å skrive det her:

-----------------0---------------------|------0-----------------------------0-------

------------0-----------0-------------|---0-----------------0-----------0----------

-------0------------0-----------0-----|-----------------0-----------0---------------

--0-------------------------0---------|-----------0--2----------0-------------------

---------------------------------------|----------------------------------------------

---------------------------------------|----------------------------------------------

-----------------------0-----------|

--------0----------0----------0---|

----0----------0----------0-------|

-----------0-----------------------|

-----------------------------------|

-----------------------------------|

dette gjentar seg et par ganger iallefall..

Link to comment
Share on other sites

atte' date=' den ligger på www.mysongbook.com faktisk.. men man må ha guitarpro for å spille av låtene. Men jeg skal se om jeg ikke klarer å skrive det her:

-----------------0---------------------|------0-----------------------------0-------

------------0-----------0-------------|---0-----------------0-----------0----------

-------0------------0-----------0-----|-----------------0-----------0---------------

--0-------------------------0---------|-----------0--2----------0-------------------

---------------------------------------|----------------------------------------------

---------------------------------------|----------------------------------------------

-----------------------0-----------|

--------0----------0----------0---|

----0----------0----------0-------|

-----------0-----------------------|

-----------------------------------|

-----------------------------------|

dette gjentar seg et par ganger iallefall..[/quote']

TAKKER OG BUKKER!!

men er du helt sikker på at det er introen?

Er i såfall giitaren stemt ned (eller opp) på noen strenger?

Stemmer ikke helt for de "sjeve" ørene mine.. hehe!

Torfinn

Link to comment
Share on other sites

  • 11 months later...

Create an account or sign in to comment

You need to be a member in order to leave a comment

Create an account

Sign up for a new account in our community. It's easy!

Register a new account

Sign in

Already have an account? Sign in here.

Sign In Now
 Share

  • Recently Browsing   0 members

    No registered users viewing this page.

×
×
  • Create New...

Important Information

By using this site, you agree to our Terms of Use.