Gå til innhold
windofpain

Ny sweeping-ting

Anbefalte innlegg

Hæpp, har begynt å øve seriøst mye på sweeping igjen, og tenkte jeg kunne dele en aldri så liten sweeping-studie jeg laget i det øyemed.

http://circles.lycos.com/repository/050911...410/sweepit.mp3

   |-3-| |-3-|  |-3-| |-3-|  |-3-| |-3-| |-3-| |-3-|

  S S S S S S  S S S S S S  S S S S S S S S S S S S

|-12-7-------7-11-7-------7-10-7-------7-9-7-------7----|

|------8---8--------8---8--------8---8-------8---8------|

|--------9------------9------------9-----------9--------|

|-------------------------------------------------------|

|-------------------------------------------------------|

|-------------------------------------------------------|





  |-3--|  |-3--|  |-3--|  |-3--|  |-3--|  |-3--|  |-3--|  |-3--|

  S S  S  S  S S  S S  S  S  S S  S S  S  S  S S  S S  S  S  S S

|-12-8----------8-11-8----------8-12-8----------8-14-8----------8----|

|------10----10--------10----10--------10----10--------10----10------|

|---------11--------------11--------------11--------------11---------|

|--------------------------------------------------------------------|

|--------------------------------------------------------------------|

|--------------------------------------------------------------------|





  |--3--|  |--3--|  |--3--|  |--3--|  |--3--|  |--3--|  |--3--|  |--3--|

  S  S  S  S  S  S  S  S  S  S  S  S  S  S  S  S  S  S  S  S  S  S  S  S

|-14-11----------11-12-11----------11-14-11----------11-15-11----------11----|

|-------12----12----------12----12----------12----12----------12----12-------|

|----------12----------------12----------------12----------------12----------|

|----------------------------------------------------------------------------|

|----------------------------------------------------------------------------|

|----------------------------------------------------------------------------|





  |--3--|  |--3--|  |--3--|  |--3--|  |--3--|  |--3--|  |--3--|  |--3--|

  S  S  S  S  S  S  S  S  S  S  S  S  S  S  S  S  S  S  S  S  S  S  S  S

|-17-12----------12-16-12----------12-15-12----------12-14-12----------12----|

|-------13----13----------13----13----------13----13----------13----13-------|

|----------14----------------14----------------14----------------14----------|

|----------------------------------------------------------------------------|

|----------------------------------------------------------------------------|

|----------------------------------------------------------------------------|





  |--3--|  |--3--|  |--3--|  |--3--|  |--3--|  |--3--|  |-3--|  |-3--|

  S  S  S  S  S  S  S  S  S  S  S  S  S  S  S  S  S  S  S S  S  S  S S

|-14-11----------------------------11-14-11----------11-11-8----------8----|

|-------13----------------------13----------13----13---------10----10------|

|----------14-11----------11-14----------------14---------------11---------|

|----------------13----13--------------------------------------------------|

|-------------------15-----------------------------------------------------|

|--------------------------------------------------------------------------|





  |-3-| |-3-| |-3-| |-3-|  |-3-| |-3-| |-3-| |-3-|

  S S S S S S S S S S S S  S S S S S S S S S S S S

|-12-7-------------------7-10-7-------7-7-3-------3----|

|------8---------------8--------8---8-------5---5------|

|--------9-4-------4-9------------9-----------7--------|

|------------5---5-------------------------------------|

|--------------7---------------------------------------|

|------------------------------------------------------|





 |-3-| |-3-|  |-3-| |-3-| |-3-| |-3-| |-3-| |-3-|

 S S S S S S  S S S S S S S S S S S S S S S S S S

|-9-6--------------------6-9-6-------6-6-3-------3----|

|-----8----------------8-------8---8-------5---5------|

|-------9-6--------6-9-----------9-----------6--------|

|-----------8----8------------------------------------|

|-------------10--------------------------------------|

|-----------------------------------------------------|





 |-3-| |-3-| |-3-| |-3-| |-3-| |-3-| |-3-| |-3-|

 S S S S S S S S S S S S S S S S S S S S S S S S

|-7-2-------2-6-2-------2-5-2-------2-4-2-------2----|

|-----3---3-------3---3-------3---3-------3---3------|

|-------4-----------4-----------4-----------4--------|

|----------------------------------------------------|

|----------------------------------------------------|

|----------------------------------------------------|

Del dette innlegget


Lenke til innlegg
Del på andre sider

Ut fra lydklippet å dømme tror jeg du bør øve den på noe lavere hastighet (som du kanskje gjør?), mens du passer på å kun berøre de strengene du skal berøre (med unntak av demping da). Blir mye støy når du trasher den så fullstendig.

Del dette innlegget


Lenke til innlegg
Del på andre sider
Ut fra lydklippet å dømme tror jeg du bør øve den på noe lavere hastighet (som du kanskje gjør?), mens du passer på å kun berøre de strengene du skal berøre (med unntak av demping da). Blir mye støy når du trasher den så fullstendig.

For all del, her var meningen å forsøke å spille den inn i det tempoet jeg tenker den skal spilles i, og siden jeg gjorde noen endringer under opptaksesjonen, så fikk jeg ikke terpet den inn i nærheten av 'perfekt', men meningen med å poste var ikke å få tilbakemeldinger på min teknikk, så mye som å få tilbakemeldinger på hvordan den funker for GN-medlemmene, dvs om den virker ok som øvelse (gir timer, så jeg lurer alltid på hvordan slike ting funker for andre).

Del dette innlegget


Lenke til innlegg
Del på andre sider

ta heller å se på Glass Prison soloen, den har mye morsomme posisjoner. den funker bra til øving. ikke så altfor vanskelig heller (om du ikke prøver den i rett tempo heller, vel å merke...)

Del dette innlegget


Lenke til innlegg
Del på andre sider

Hmm, jeg syns ihvertfall denne øvelsen gav meg endel utfordringer, og får frem unøyaktigheter, og således funker den etter hensikten, men folk har vel forskjellige styrker og svakheter, og det jeg syns er vanskelig er lett for andre osv, men hvis denne ikke gav noen utfordringer noen andre synes var interessante så er det notert.

Del dette innlegget


Lenke til innlegg
Del på andre sider
Prøv disse også!

http://www.insaneguitar.com/mc/sweeping.html

M/MP3-filer, så du kan høre at du gjør det riktig!

jeg har prøvd meg på den der en liten stund nå, men så rpøvde jeg meg på en Aminor arpeggio. Fikk et lite problem.

Når du har to 'noter' over hverandre. F.eks bånd 14 på både 3 og 4 streng (altså de kommer etterhverandre). Hvilken teknikk er enklest å bruke? flytte samme fingeren nedover ett hakk eller bruke ny finger? Jeg får det ikke helt til :(

Del dette innlegget


Lenke til innlegg
Del på andre sider
Prøv disse også!

http://www.insaneguitar.com/mc/sweeping.html

M/MP3-filer, så du kan høre at du gjør det riktig!

jeg har prøvd meg på den der en liten stund nå, men så rpøvde jeg meg på en Aminor arpeggio. Fikk et lite problem.

Når du har to 'noter' over hverandre. F.eks bånd 14 på både 3 og 4 streng (altså de kommer etterhverandre). Hvilken teknikk er enklest å bruke? flytte samme fingeren nedover ett hakk eller bruke ny finger? Jeg får det ikke helt til :(

Du må bruke samme finger, men du må "rulle" med den. Hvis du har en sweeping der du brker bånd 14 på A-streng, D-Streng og G-strengen, begynner du først med tuppen av fingeren for så å rulle på fingerleddet slik at når du tilslutt spiller noten på G-strengen har fingeren din gjort en rullebevegelse. Søk google for å få se eksempler eller finn noen lessons.

Del dette innlegget


Lenke til innlegg
Del på andre sider

takk leo. Tenkte meg egentlig at jeg må 'rulle'. Broren min snakket om det. Må bare finne ut hvordan det gjøres i praksis da :)

Bruker google jeg...

Del dette innlegget


Lenke til innlegg
Del på andre sider
takk leo. Tenkte meg egentlig at jeg må 'rulle'. Broren min snakket om det. Må bare finne ut hvordan det gjøres i praksis da :)

Bruker google jeg...

Er vannvittig vanskelig iallefall (les: jeg klarer det ikke :P )

Del dette innlegget


Lenke til innlegg
Del på andre sider
takk leo. Tenkte meg egentlig at jeg må 'rulle'. Broren min snakket om det. Må bare finne ut hvordan det gjøres i praksis da :)

Bruker google jeg...

Er vannvittig vanskelig iallefall (les: jeg klarer det ikke :P )

Da kan jeg betrygge deg med at, det klarer ikke jeg heller :roll:

Noen som kan bekrefte at man bare vrir på fingeren over båndet på venstre side? Får det nesten til (i teorien) :P

uff... alle de fine aperggioene krever rulling :(

Del dette innlegget


Lenke til innlegg
Del på andre sider

Opprett en konto eller logg inn for å kommentere

Du må være et medlem for å kunne skrive en kommentar

Opprett konto

Det er enkelt å melde seg inn for å starte en ny konto!

Start en konto

Logg inn

Har du allerede en konto? Logg inn her.

Logg inn nå

  • Hvem er aktive   0 medlemmer

    Ingen innloggede medlemmer aktive

×
×
  • Opprett ny...

Viktig informasjon

Dette nettstedet bruker cookies for å gi deg en best mulig brukeropplevelse Bruksvilkår.