Gå til innhold
Boffen

mötley crüe

Anbefalte innlegg

lurer på tabs til bittersuit,afraid og misunderstood av mötley crüe

Del dette innlegget


Lenke til innlegg
Del på andre sider

er rimeli stor crue fan å har ik funnet disse på nett har lete rimeli masse.....muli di ligger som guitar pro filer men.....sjekk mx tabs siden...mangen fra forumet på motley.com so tabber dær....

Del dette innlegget


Lenke til innlegg
Del på andre sider

Afraid Tab by Motley Crue, www.Ultimate-Guitar.Com  · Afraid Tab @ 911Tabs.Com  





Standard Tuning



(Intro)

e|--------------------------------------------------------------|

b|--------------------------------------------------------------|

g|--------------------------------------------------------------|

d|--------------------------------------------------------------|

a|-8-8-8-8-8-8-8-----------------------------8-7-7-7-7-7-7-7-7-7|

e|---------------6-6-6-6-6-6-6-6-8-8-8-8-8-8--------------------|



(Interlude)

e|------------------------------|

b|------------------------------|

g|-7-7-7-7-7-3-5--5-5-5-5-5-5-5-|

d|-7-7-7-7-7-3-5--5-5-5-5-5-5-5-|

a|-5-5-5-5-5-1-3--3-3-3-3-3-3-3-|

e|------------------------------|



(Chorus)

e|------------------------------------------------------------------------|

b|------------------------------------------------------------------------|

g|-7--7--7--7--7--7--7--7--10-10-10-10-10-10-10-10-5--5--5--5--5--5--5--5-|

d|-7--7--7--7--7--7--7--7--10-10-10-10-10-10-10-10-5--5--5--5--5--5--5--5-|

a|-5--5--5--5--5--5--5--5--8--8--8--8--8--8--8--8--3--3--3--3--3--3--3--3-|

e|-5--5--5--5--5--5--5--5--8--8--8--8--8--8--8--8--3--3--3--3--3--3--3--3-|



e|-------------------------|

b|-------------------------|

g|-12-12-12-12-12-12-12-12-|

d|-12-12-12-12-12-12-12-12-|

a|-10-10-10-10-10-10-10-10-|

e|-10-10-10-10-10-10-10-10-|



(Outro)

e|------------------------------------------------------------------------|

b|------------------------------------------------------------------------|

g|------------------------------------------------------------------------|

d|-11-(11)/12--------12----(12)------------11-(11)/12--------12----(12)-|

a|-11-(11)/12--12-------12-(12)------------11-(11)/12--12-------12-(12)-|

e|-9--(9)-/10-----10-------(10)------------9--(11)/12-----10-------(12)-|



e|------------------------------------------------------------------------|

b|------------------------------------------------------------------------|

g|------------------------------------------------------------------------|

d|-8----------------------------------------11-(11)/12--------12----(12)-|

a|-6--------------------------10------------11-(11)/12--12-------12-(12)-|

e|----------------------------8-------------9--(11)/12-----10-------(12)-|



e|------------------------------------------------------------------------|

b|------------------------------------------------------------------------|

g|------------------------------------------------------------------------|

d|-11-(11)/12--------12----(12)------------11-(11)/12--------12----(12)-|

a|-11-(11)/12--12-------12-(12)------------11-(11)/12--12-------12-(12)-|

e|-9--(11)/12-----10-------(12)------------9--(11)/12-----10-------(12)-|



e|------------------------------------------------------------------------|

b|------------------------------------------------------------------------|

g|------------------------------------------------------------------------|

d|-8----------------------------------------11-(11)/12--------12----(12)-|

a|-6--------------------------10------------11-(11)/12--12-------12-(12)-|

e|----------------------------8-------------9--(11)/12-----10-------(12)-|



e|------------------------------------------------------------------------|

b|------------------------------------------------------------------------|

g|------------------------------------------------------------------------|

d|-11-(11)/12--------12----(12)------------11-(11)/12--------12----(12)-|

a|-11-(11)/12--12-------12-(12)------------11-(11)/12--12-------12-(12)-|

e|-9--(11)/12-----10-------(12)------------9--(11)/12-----10-------(12)-|



Thanks, please rate if after you learn it

Misunderstood Tab by Motley Crue, www.Ultimate-Guitar.Com  · Misunderstood Tab @ 911Tabs.Com  

Song: Misunderstood

Artist: Motley Crue

Album: Motley Crue (1994)

As tabbed by Joe Muggah

joe_the_man3@hotmail.com

Dropped D and tuned down a step

The mandolin part can be played easily by putting a capo

on the 12th fret.

Intro (played on a 12-String)

d-------2---------2---------2--------2----------------------

A-----3---------3---------3--------3------------------------

F-----------------------------------------------------------

C--0-------0------------------------------------------------

G------------3-------3-2------2-0---------------------------

C--------------------------------------3^-------------------

Verse 1 (played on a 12-String)

d-------2---------2---------2--------2----------------------

A-----3---3-----3---------3--------3------------------------

F-----------------------------------------------------------

C-----------------------------------------------------------

G------------3-------3-2-------2-0--------------------------

C--0-----------------------------------3^-------------------

Chorus A (Guitar 1)                                end on

d--0--0-0--0-0---3--3-3--3-3---2--2--2-2--2-2--2--|-0--3--2-

A--2--2-2--2-2---3--3-3--3-3---3--3--3-3--3-3--3--|-2--3--3-

F--2--2-2--2-2---0--0-0--0-0---2--2--2-2--2-2--2--|-2--0--2-

C--2--2-2--2-2---0--0-0--0-0---0--0--0-0--0-0--0--|-2--0--0-

G--0--0-0--0-0---2--2-2--2-2----------------------|-0--2----

C-------------------------------------------------|---------

Chorus B (Mandolin arranged for Guitar 2)

d--12--12-12--15-15--15-15--17-17-17-17---------------------

A--14--14-14--15-15--15-15--17-17-17-17-15-12---------------

F--14--14-14--14-14--14-14--18-18-18-18-------14-12-11------

C------------------------------------------------------14-12

G-----------------------------------------------------------

C-----------------------------------------------------------

Riff

d-----------------------------------------------------------

A-----------------------------------------------------------

F---------------------------------5---0---------------------

C-----------3p0---------3p0-------5---0--------0------------

G-----------------------------2-3-3---2--0-2-3----3-2-------

C--0--0h3p0-------0h3p0-------------------------------3-----

Verse 2

d-----------------------------------------------------------

A-----------------------------------------------------------

F---------------------------------5---0---------------------

C-----------3p0-------------------5---0--------0------------

G-----------------------------2-3-3---2--0-2-3----3-2-------

C--0--0h3p0-------------------------------------------3-----

Chorus 2A (Guitar 1)

d-----------------------------------------------------------

A-----------------------------------------------------------

F----------7----------5-------------------------------------

C----------7----------5----------5--------------------------

G--5m--5m--5--3m--3m--3----------5--------------------------

C------------------------5m--5m--5--5m--5m--5m--5m----------

(continued)                                      end on

d-------------------------------------------------|---------

A-------------------------------------------------|---------

F----------7----------5---------------------------|--3----5-

C----------7----------5----------5--------0-------|--3----5-

G--5m--5m--5--3m--3m--3----------5--0-2-3---3-2---|--1----3-

C------------------------5m--5m--5--------------3-|---------

Chorus 2B (Guitar 2)

d-----------------------------------------------------------

A-----------------------------------------------------------

F------5-------3--------10v---------5-------3--------10v----

C----4-------2--------9-----------4-------2--------9--------

G--5-------3-------10-----------5-------3-------10----------

C-----------------------------------------------------------

Bridge 1

d-----------------------------------------------------------

A-----------------------------------------------------------

F-----------------------------------------------------------

C-----------3p0-------------3p0-----------------------------

G-------------------------------0-2-3--2-0------------------

C--0--0h3p0-----------0h3p0----------------3^---------------

Bridge 2 (Switch from Bridge 1 part way through the solo)

d-----------------------------------------------------------

A-----------------------------------------------------------

F--7---9---10---12---7---9---10---12----12------12------12--

C--7---9---10---12---7---9---10---12----12------12------12--

G--5---7----8---10---5---7----8---10----10------10------10--

C-----------------------------------------------------------

Solo

d--11------------------------------------------------------

A--11-----------------8-6----------------------------------

F----------7-5---5-7-------7----5----5----5----5--7v--------

C--------------7--------------7----7----7----7--------------

G-----------------------------------------------------------

C-----------------------------------------------------------

(continued)

d-----------------------------------------------------------

A-----------10-----13--12--10-----------7---8---9---10--10`-

F--10-11-12----10-------------10--11--7---7---7---7---------

C-----------------------------------------------------------

G-----------------------------------------------------------

C-----------------------------------------------------------

(continued)

d----------------10--8--------10--10----10-------10--------

A--10`-10`-10`^---------10-8--10-----10----10-10-----10-10-

F-----------------------------------------------------------

C-----------------------------------------------------------

G-----------------------------------------------------------

C-----------------------------------------------------------

(continued)

d-----10-------10----10--15-14-----------------------------

A--10----10-10----10------------15-------7---------8p7-----

F-------------------------------------/7-----7---7------7---

C-------------------------------------/7---------7----------

G-----------------------------------------------------------

C-----------------------------------------------------------

(continued)

d-----------------------10----------------------------------

A-----10----13----10--------12p10--------7--------8p7-------

F--10----10----10----10-----------12--7-----7--7------7-----

C-------------------------------------7--------7------------

G-----------------------------------------------------------

C-----------------------------------------------------------

(continued)

d-----------------------------------------------------------

A-----10----13----10----13--12p10-----10-------12-----------

F--10----10----10----10-----------12-----10-------12--------

C-------------------------------------------10-------12-----

G-----------------------------------------------------------

C-----------------------------------------------------------

(continued)

d-----------------------------------------------------------

A--10-------12-----10--12--10-10-10-12-12-12-10-10-10-12-12-

F-----10-------12--10--12--10-10-10-12-12-12-10-10-10-12-12-

C--------10-------------------------------------------------

G-----------------------------------------------------------

C-----------------------------------------------------------

Outro (Mandolin arranged for Guitar 2)

d-----------14---------------------14-----------------------

A-----15-----------15--------15-----------15--------15------

F-----------------------------------------------------------

C--12----12-----12----12------------------------------------

G-------------------------15----15-----15----15--14----14---

C-----------------------------------------------------------

(continued)

d--14-----------------------------------17----17----17------

A---------15------------15--15------------------------------

F-----------------------------------------------------------

C-----------------------------------------------------------

G------14----14--12--12--------------17----17----17-----17--

C------------------------------15^--------------------------

(continued)

d--17----17----17------17----17----17-----17----17----17----

A-----------------------------------------------------------

F-----------------------------------------------------------

C-----------------------------------------------------------

G-----17----17------17----17----17-----17----17----17-------

C-----------------------------------------------------------

(continued)

d--13h14-----------------13h14----------------13h14---------

A--------15----15-12-----------15----15-12----------15------

F-----------14-------14-----------14-------14----------14---

C-----------------------------------------------------------

G-----------------------------------------------------------

C-----------------------------------------------------------

(continued)

d------------------------------------------------------14---

A----------------------12-10--------------12-10-------------

F--15-12-----11-12-14--------10--11-12-14-------10----------

C--------14-------------------------------------------------

G-----------------------------------------------------------

C--------------------------------------------------12-------

Intro

Verse 1

Chorus 1A, 1B

Verse 1

Chorus 1A, 1B

Riff

Verse 2

Chorus 2A, 2B

Riff

Verse 2

Chorus 2A, 2B

Bridge 1 to Bridge 2, Solo

Chorus 2A, 2B

Verse 1

Verse 1, Outro (fade-out)

===========motley crue- Misunderstood

tabbed by : bighabit69@iamwasted.com

(silkmoth- on the  message board)

tuning: C G C F A D

Intro

 D       D/C       D/B     D/A

 Gtr I

|-----------------|---------------------|

|-----------------|---------------------|

|-----------------|---------------------|

|---0-4-----0-4---|---0-4-----0-4-------|

|-5-----5-3-----3-|-2-----2-0-----------|

|-----------------|---------------3b3.5-|

 D       D/C       D/B     D/A

|-----------------|---------------------||

|-----------------|---------------------||

|-----------------|---------------------||

|-----4-----0-4---|---0-4-----0-4-------||

|---5---5-3-----3-|-2-----2-0-----------||

|-0---------------|---------------3b3.5-||

1st Verse

 D       D/C       D/B     D/A

|-----------------|---------------------|

|-----------------|---------------------|

|-----------------|---------------------|

|-----4-----0-4---|---0-4-----0-4-------|

|---5---5-3-----3-|-2-----2-0-----------|

|-0---------------|---------------3b3.5-|

 D       D/C       D/B     D/A

|-----------------|----------------------|

|-----------------|----------------------|

|-----------------|----------------------|

|-----4-----0-4---|---0-4-----0-4--------|

|---5---5-3-----3-|-2-----2-0------------|

|-0---------------|---------------3b3.5--|

 D       D/C       D/B     D/A

|-----------------|---------------------|

|-----------------|---------------------|

|-----------------|---------------------|

|-----4-----0-4---|---0-4-----0-4-------|

|---5---5-3-----3-|-2-----2-0-----------|

|-0---------------|---------------3b3.5-|

 D       D/C       D/B     D/A

|-----------------|----------------------||

|-----------------|----------------------||

|-----------------|----------------------||

|-----4-----0-4---|---0-4-----0-4--------||

|---5---5-3-----3-|-2-----2-0------------||

|-0---------------|---------------3b3.5--||

Chorus

 A             G/B               D/A

|--0---0-----0---3----3--3--3-3-|--2--------2-----2--2--2--------2-----2--2-|

|--2---2-----2---0----0--0--0-0-|--3--------3-----3--3--3--------3-----3--3-|

|--2---2-----2---0----0--0--0-0-|--2--------2-----2--2--2--------2-----2--2-|

|--2---2-----2---0----0--0--0-0-|--0--------0-----0--0--0--------0-----0--0-|

|--0---0-----0---2----2--2--2-2-|--0--------0-----0--0--0--------0-----0--0-|

|-------------------------------|-------------------------------------------|

|

| Gtr II

|-12--12-12-12--15-15---15-15---|-14-14-14-14-14-14-------------------------|

|-14--14-14-14--15-15---15-15---|-15-15-15-15-15-15----15-15----------------|

|-14--14-14-14--14-14---14-14---|-14-14-14-14-14-14-14-------16-14-------14-|

|-------------------------------|----------------------------------15h16----|

|-------------------------------|-------------------------------------------|

|-------------------------------|-------------------------------------------|

 A             G/B               D/A

|--0---0-----0---3----3--3--3-3-|--2--------2-----2--2--2--------2-----2--2-|

|--2---2-----2---0----0--0--0-0-|--3--------3-----3--3--3--------3-----3--3-|

|--2---2-----2---0----0--0--0-0-|--2--------2-----2--2--2--------2-----2--2-|

|--2---2-----2---0----0--0--0-0-|--0--------0-----0--0--0--------0-----0--0-|

|--0---0-----0---2----2--2--2-2-|--0--------0-----0--0--0--------0-----0--0-|

|-------------------------------|-------------------------------------------|

|

|-12--12-12-12--15-15---15-15---|-14-14-14-14-14-14-------------------------|

|-14--14-14-14--15-15---15-15---|-15-15-15-15-15-15----15-15----------------|

|-14--14-14-14--14-14---14-14---|-14-14-14-14-14-14-14-------16-14----------|

|-------------------------------|----------------------------------15h16-12-|

|-------------------------------|-------------------------------------------|

|-------------------------------|-------------------------------------------|

 A             G/B

|--0---0-----0---3----3--3--3-3--|

|--2---2-----2---0----0--0--0-0--|

|--2---2-----2---0----0--0--0-0--|

|--2---2-----2---0----0--0--0-0--|

|--0---0-----0---2----2--2--2-2--|

|--------------------------------|

|

|-12--12-12-12--15-15---15-15----|

|-14--14-14-14--15-15---15-15----|

|-14--14-14-14--14-14---14-14----|

|--------------------------------|

|--------------------------------|

|--------------------------------|

 D/A                                         A    G/B    D/A

|--2--------2-----2--2--2--------2-----2--2-|-0----3----|-2----||

|--3--------3-----3--3--3--------3-----3--3-|-2----0----|-3----||

|--2--------2-----2--2--2--------2-----2--2-|-2----0----|-2----||

|--0--------0-----0--0--0--------0-----0--0-|-2----0----|-0----||

|--0--------0-----0--0--0--------0-----0--0-|-0----2----|-0----||

|-------------------------------------------|-----------|------||

|

|-14-14-14-14-14-14-------------------------|-----------|------||

|-15-15-15-15-15-15----15-15----------------|-----------|------||

|-14-14-14-14-14-14-14-------16-14----------|-----------|------||

|----------------------------------15h16-12-|-----------|------||

|-------------------------------------------|-----------|------||

|-------------------------------------------|-----------|------||

Interlude

 D       D/C       D/B     D/A       D       D/C       D/B     D/A

 Gtr III

|---0-4-----0-4---|---0-4-----0-4---|---0-4-----0-4---|---0-4-----0-4----|

|-5-----5-3-----3-|-2-----2-0-----3-|-5-----5-3-----3-|-2-----2-0-----3--|

|-----------------|-----------------|-----------------|------------------|

|-----------------|-----------------|-----------------|------------------|

|-----------------|-----------------|-----------------|------------------|

|-----------------|-----------------|-----------------|------------------|

 D       D/C       D/B     D/A       D       D/C       D/B     D/A

|---0-4-----0-4---|---0-4-----0-4---|---0-4-----0-4---|---0-4-----0-4----|

|-5-----5-3-----3-|-2-----2-0-----3-|-5-----5-3-----3-|-2-----2-0-----3--|

|-----------------|-----------------|-----------------|------------------|

|-----------------|-----------------|-----------------|------------------|

|-----------------|-----------------|-----------------|------------------|

|-----------------|-----------------|-----------------|------------------|

 D       D/C       D/B     D/A       D       D/C       D/B     D/A

|---0-4-----0-4---|---0-4-----0-4---|---0-4-----0-4---|---0-4-----0-4----||

|-5-----5-3-----3-|-2-----2-0-----3-|-5-----5-3-----3-|-2-----2-0-----3--||

|-----------------|-----------------|-----------------|------------------||

|-----------------|-----------------|-----------------|------------------||

|-----------------|-----------------|-----------------|------------------||

|-----------------|-----------------|-----------------|------------------||

Chorus

 A             G/B               D/A

 Gtr I

|--0---0-----0---3----3--3--3-3-|--2--------2-----2--2--2--------2-----2--2-|

|--2---2-----2---0----0--0--0-0-|--3--------3-----3--3--3--------3-----3--3-|

|--2---2-----2---0----0--0--0-0-|--2--------2-----2--2--2--------2-----2--2-|

|--2---2-----2---0----0--0--0-0-|--0--------0-----0--0--0--------0-----0--0-|

|--0---0-----0---2----2--2--2-2-|--0--------0-----0--0--0--------0-----0--0-|

|-------------------------------|-------------------------------------------|

|

| Gtr II

|-12--12-12-12--15-15---15-15---|-14-14-14-14-14-14-------------------------|

|-14--14-14-14--15-15---15-15---|-15-15-15-15-15-15----15-15----------------|

|-14--14-14-14--14-14---14-14---|-14-14-14-14-14-14-14-------16-14-------14-|

|-------------------------------|----------------------------------15h16----|

|-------------------------------|-------------------------------------------|

|-------------------------------|-------------------------------------------|

 A             G/B               D/A

|--0---0-----0---3----3--3--3-3-|--2--------2-----2--2--2--------2-----2--2-|

|--2---2-----2---0----0--0--0-0-|--3--------3-----3--3--3--------3-----3--3-|

|--2---2-----2---0----0--0--0-0-|--2--------2-----2--2--2--------2-----2--2-|

|--2---2-----2---0----0--0--0-0-|--0--------0-----0--0--0--------0-----0--0-|

|--0---0-----0---2----2--2--2-2-|--0--------0-----0--0--0--------0-----0--0-|

|-------------------------------|-------------------------------------------|

|

|-12--12-12-12--15-15---15-15---|-14-14-14-14-14-14-------------------------|

|-14--14-14-14--15-15---15-15---|-15-15-15-15-15-15----15-15----------------|

|-14--14-14-14--14-14---14-14---|-14-14-14-14-14-14-14-------16-14----------|

|-------------------------------|----------------------------------15h16-12-|

|-------------------------------|-------------------------------------------|

|-------------------------------|-------------------------------------------|

 A             G/B

|--0---0-----0---3----3--3--3-3--|

|--2---2-----2---0----0--0--0-0--|

|--2---2-----2---0----0--0--0-0--|

|--2---2-----2---0----0--0--0-0--|

|--0---0-----0---2----2--2--2-2--|

|--------------------------------|

|

|-12--12-12-12--15-15---15-15----|

|-14--14-14-14--15-15---15-15----|

|-14--14-14-14--14-14---14-14----|

|--------------------------------|

|--------------------------------|

|--------------------------------|

 D/A                                         A    G/B    D/A

|--2--------2-----2--2--2--------2-----2--2-|-0----3----|-2----||

|--3--------3-----3--3--3--------3-----3--3-|-2----0----|-3----||

|--2--------2-----2--2--2--------2-----2--2-|-2----0----|-2----||

|--0--------0-----0--0--0--------0-----0--0-|-2----0----|-0----||

|--0--------0-----0--0--0--------0-----0--0-|-0----2----|-0----||

|-------------------------------------------|-----------|------||

|

|-14-14-14-14-14-14-------------------------|-----------|------||

|-15-15-15-15-15-15----15-15----------------|-----------|------||

|-14-14-14-14-14-14-14-------16-14----------|-----------|------||

|----------------------------------15h16-12-|-----------|------||

|-------------------------------------------|-----------|------||

|-------------------------------------------|-----------|------||

2nd Verse

                                     Csus2      G/B

 Gtr IV

|----------|-------------------------------|-----------------------------|

|----------|-------------------------------|------3-3-(3)----------------|

|----------|-------------------------------|------0-0-(0)----------------|

|----------|-----------3p0-----------------|------2-0-(0)-------0--------|

|----------|-------------------------0-2-3-|-(3)--3-2-(2)-0-2-3---2------|

|--------0-|-(0)-0-3p0-------0-3-0-3-------|------------------------3-0--|

 N.C.                        Csus2      G/B

|-------------------------------|----------------------------|

|-------------------------------|------3-3-(3)---------------|

|-------------------------------|------0-0-(0)---------------|

|-----------3p0-----------------|------2-0-(0)-------0-------|

|-------------------------0-2-3-|-(3)--3-2-(2)-0-2-3---2-----|

|-(0)-0-3p0-------0-3-0-3-------|------------------------3-0-|

 N.C.                        Csus2

|---------------------------------|

|---------------------------------|

|---------------------------------|

|-----------3p0-------------------|

|-------------------------0-2-3---|

|-(0)-0-3p0-------0-3-0-3---------|

        G/B                   N.C.                        Csus2

|----------------------------|-------------------------------|

|------3-3-(3)---------------|-------------------------------|

|------0-0-(0)---------------|-------------------------------|

|------2-0-(0)-------0-------|-----------3p0-----------------|

|-(3)--3-2-(2)-0-2-3---2-----|-------------------------0-2-3-|

|------------------------3-0-|-(0)-0-3p0-------0-3-0-3-------|

        G/B

|----------------------------||

|------3-3-(3)---------------||

|------0-0-(0)---------------||

|------2-0-(0)-------0-------||

|-(3)--3-2-(2)-0-2-3---2-----||

|------------------------3-0-||

3rd Verse

 N.C.              Csus2        G/B

|-------------------0-|-(0)--(0)---------------------|

|-------------------3-|-(3)--(3)-3-(3)---------------|

|-------------------0-|-(0)--(0)-0-(0)---------------|

|-----------3p0-----2-|-(2)--(2)-0-(0)-------0-------|

|-------------------3-|-(3)--(3)-2-(2)-0-2-3---2-----|

|-(0)-0-3p0-----------|--------------------------3-0-|

 N.C.              Csus2        G/B

|-------------------0-|-(0)--(0)----------------------|

|-------------------3-|-(3)--(3)-3-(3)----------------|

|-------------------0-|-(0)--(0)-0-(0)----------------|

|-----------3p0-----2-|-(2)--(2)-0-(0)-------0--------|

|-------------------3-|-(3)--(3)-2-(2)-0-2-3---2------|

|-(0)-0-3p0-----------|--------------------------3-0--|

 N.C.              Csus2        G/B

|-------------------0-|-(0)--(0)---------------------|

|-------------------3-|-(3)--(3)-3-(3)---------------|

|-------------------0-|-(0)--(0)-0-(0)---------------|

|-----------3p0-----2-|-(2)--(2)-0-(0)-------0-------|

|-------------------3-|-(3)--(3)-2-(2)-0-2-3---2-----|

|-(0)-0-3p0-----------|--------------------------3-0-|

 N.C.              Csus2        G/B

|-------------------0-|-(0)--(0)----------------------||

|-------------------3-|-(3)--(3)-3-(3)----------------||

|-------------------0-|-(0)--(0)-0-(0)----------------||

|-----------3p0-----2-|-(2)--(2)-0-(0)-------0--------||

|-------------------3-|-(3)--(3)-2-(2)-0-2-3---2------||

|-(0)-0-3p0-----------|--------------------------3-0--||

  Chorus

   D5     C5       G5

   PM|    PM|       PM|       PM------------

||----------------|-------------------------|

||o---------------|-------------------------|

||----------------|-------------------------|

||------7------5--|-------------------------|

||o-5-5-5--3-3-3--|-------5-----------------|

||----------------|--5-5--5----5--5---5---5-|

|

|   Gtr V

|                         ~~~~~~~~

||----------------|-------------------------|

||o---------------|-------------------------|

||------5------3--|------10--(10)---(10)---|

||----4------2----|----9--------------------|

||o-5------3------|-10----------------------|

||----------------|-------------------------|

 D5     C5       G5

---|    PM|       PM|

|---------------|------------------------------|

|---------------|------------------------------|

|---------------|------------------------------|

|-----7------5--|---------------------0--------|

|-5-5-5--3-3-3--|-------5-------0-2-3---2------|

|---------------|--5-5--5-----------------3-0--|

|

|                             ~~

|---------------|------------------------------|

|---------------|------------12----------------|

|-----5------3--|------10----------------------|

|---4------2----|----9----12-------------------|

|-5------3------|-10---------------------------|

|---------------|------------------------------|

                                                     

 D5     C5       G5                        Bb5        C5

 PM|    PM|       PM|       PM---------|

|---------------|-------------------------|----------|---------------||

|---------------|-------------------------|----------|---------------||

|---------------|-------------------------|-3--------|-5------(5)----||

|-----7------5--|-------------------------|-3--------|-5------(5)----||

|-5-5-5--3-3-3--|-------5-----------------|-1--------|-3------(3)----||

|---------------|--5-5--5----5--5---5---5-|----------|------------0--||

|

|                       ~~~~~~~~

|---------------|-------------------------|----------|---------------||

|---------------|-------------------------|----------|---------------||

|-----5------3--|------10--(10)---(10)---|-3--------|-5------(5)----||

|---4------2----|----9--------------------|-3--------|-5------(5)----||

|-5------3------|-10----------------------|-1--------|-3------(3)----||

|---------------|-------------------------|----------|------------0--||

 N.C.                        Csus2      G/B

|-------------------------------|----------------------------|

|-------------------------------|------3-3-(3)---------------|

|-------------------------------|------0-0-(0)---------------|

|-----------3p0-----------------|------2-0-(0)-------0-------|

|-------------------------0-2-3-|-(3)--3-2-(2)-0-2-3---2-----|

|-(0)-0-3p0-------0-3-0-3-------|------------------------3-0-|

|

|-------------------------------|----------------------------|

|-------------------------------|------3-3-(3)---------------|

|-------------------------------|------0-0-(0)---------------|

|-----------3p0-----------------|------2-0-(0)-------0-------|

|-------------------------0-2-3-|-(3)--3-2-(2)-0-2-3---2-----|

|-(0)-0-3p0-------0-3-0-3-------|------------------------3-0-|

 N.C.                        Csus2   G/B               D5

|------------------------------|----0----------------------||

|------------------------------|----3-3-(3)----------------||

|------------------------------|----0-0-(0)----------------||

|-----------3p0----------------|----2-0-(0)-------0--------||

|-------------------------0-2--|-3--3-2-(2)-0-2-3---2------||

|-(0)-0-3p0-------0-3-0-3------|----------------------3-0--||

|

|------------------------------|----0----------------------||

|------------------------------|----3-3-(3)-------------3--||

|------------------------------|----0-0-(0)-------------2--||

|-----------3p0----------------|----2-0-(0)-------0-----0--||

|-------------------------0-2--|-3--3-2-(2)-0-2-3---2------||

|-(0)-0-3p0-------0-3-0-3------|----------------------3----||

                     Csus2        G/B                 D5

|-----------------------|--------------------------------|

|---------------------3-|-(3)--(3)-3-(3)-----------------|

|---------------------0-|-(0)--(0)-0-(0)-----------------|

|-----------3p0-------2-|-(2)--(2)-0-(0)--------0--------|

|---------------------3-|-(3)--(3)-2-(2)-0-2-3-----2-----|

|-(0)-0-3p0-------------|----------------------------3-0-|

|

|-----------------------|--------------------------------|

|-(3)-------1----3--1-1-|-(1)--(1)-3-(3)-------(3)-----3-|

|-(2)-----------------0-|-(0)--(0)-0-(0)-------(0)-----2-|

|-(0)-----------------2-|-(2)--(2)-0-(0)-------(0)-----0-|

|---------------------3-|-(3)--(3)-2-(2)-------(2)-------|

|-----------------------|--------------------------------|

                     Csus2        G/B                 D5

|-----------------------|---------------------------------|

|---------------------3-|-(3)--(3)-3-(3)------------------|

|---------------------0-|-(0)--(0)-0-(0)------------------|

|-----------3p0-------2-|-(2)--(2)-0-(0)--------0---------|

|---------------------3-|-(3)--(3)-2-(2)-0-2-3-----2------|

|-(0)-0-3p0-------------|----------------------------3-0--|

|

|-----------------------|---------------------------------|

|-(3)-------1----3--1-1-|-(1)--(1)-3-(3)-------(3)-----3--|

|-(2)-----------------0-|-(0)--(0)-0-(0)-------(0)-----2--|

|-(0)-----------------2-|-(2)--(2)-0-(0)-------(0)-----0--|

|---------------------3-|-(3)--(3)-2-(2)-------(2)--------|

|-----------------------|---------------------------------|

                     Csus2        G/B                 D5

|-----------------------|--------------------------------|

|---------------------3-|-(3)--(3)-3-(3)-----------------|

|---------------------0-|-(0)--(0)-0-(0)-----------------|

|-----------3p0-------2-|-(2)--(2)-0-(0)--------0--------|

|---------------------3-|-(3)--(3)-2-(2)-0-2-3-----2-----|

|-(0)-0-3p0-------------|----------------------------3-0-|

|

|-----------------------|--------------------------------|

|-(3)-------1----3--1-1-|-(1)--(1)-3-(3)-------(3)-----3-|

|-(2)-----------------0-|-(0)--(0)-0-(0)-------(0)-----2-|

|-(0)-----------------2-|-(2)--(2)-0-(0)-------(0)-----0-|

|---------------------3-|-(3)--(3)-2-(2)-------(2)-------|

|-----------------------|--------------------------------|

                     Csus2        G/B

|-----------------------|--------------------------------||

|---------------------3-|-(3)--(3)-3-(3)----------------o||

|---------------------0-|-(0)--(0)-0-(0)-----------------||

|-----------3p0-------2-|-(2)--(2)-0-(0)-------0---------||

|---------------------3-|-(3)--(3)-2-(2)-0-2-3---2------o||

|-(0)-0-3p0-------------|--------------------------3-0---||

|

|-----------------------|--------------------------------||

|-(3)-------1----3--1-1-|-(1)--(1)-3-(3)----------------o||

|-(2)-----------------0-|-(0)--(0)-0-(0)-----------------||

|-(0)-----------------2-|-(2)--(2)-0-(0)-----------------||

|---------------------3-|-(3)--(3)-2-(2)----------------o||

|-----------------------|--------------------------------||

                  Guitar Solo

 C5                N.C.

|----------------||----------------------|-------------------------------------|

|----------------||----------------------|-------------------------------------|

|-5-------(5)----||----------------------|-------------------------------------|

|-5-------(5)----||-------------3p0------|-------------------------------------|

|-3-------(3)----||----------------------|----------0-2--3-(3)-2--0------------|

|--------------0-||--(0)--0-3p0----------|--0-3-0-3-----------------3b3.5----0-|

|

|----------------||----------------------|-------------------------------------|

|-------------10-||-(10)----------------|--------------/8-(8)-6--------------|

|-5-------(5)-10-||-(10)----------------|--7s5---5s7-------------5---------/5-|

|-5-------(5)-10-||-(10)----------------|------7-------------------------7----|

|-3-------(3)----||----------------------|-------------------------------------|

|----------------||----------------------|-------------------------------------|

|----------------------------------|

|----------------------------------|

|----------------------------------|

|------------3p=0------------------|

|----------------------------------|

|-(0)-0--3p0-----------------------|

|

|                           ~~~~~~

|----------------------------------|

|----------------------------------|

|-(5)---5-----5----5---5s7-(7)--|

|-----7------7-----7----7----------|

|----------------------------------|

|----------------------------------|

|-------------------------------------|----------------------------------|

|-------------------------------------|----------------------------------|

|-------------------------------------|----------------------------------|

|-------------------------------------|-----------3p0--------------------|

|------------0-2--3-(3)-2-0-----------|----------------------------------|

|---0-3-0--3----------------3b3.5---0-|-(0)-0-3p0------------------------|

|

|----------------/8-(8)-7-5-----------|----------------------------------|

|---7-8-9-10-6s7------------5s====7-7-|-(7)---7---7---8---8-8-8-8-8-9s===|

|-7-----------------------------------|-----7---7---7---8----------------|

|-------------------------------------|----------------------------------|

|-------------------------------------|----------------------------------|

|-------------------------------------|----------------------------------|

|--------------------------------------------|-----------------------------------------|

|--------------------------------------------|-----------------------------------------|

|--------------------------------------------|-----------------------------------------|

|--------------------------------------------|----------------3p=0---------------------|

|---------------0-2--3--(3)-2--0-------------|-----------------------------------------|

|----0-3-0---3-------------------3b3.5-----0-|--(0)--0--3p=0---------------------------|

|

|  ~~                                                                               ~~

|-------------------10-(10)-8-------------10-|-(10)----10----10-------10--10-10----10--|

|-10-------(10)---------------10-8s====10-10-|-(10)-10----10----10-10-----------10-----|

|--------------------------------------------|-----------------------------------------|

|--------------------------------------------|-----------------------------------------|

|--------------------------------------------|-----------------------------------------|

|--------------------------------------------|-----------------------------------------|

|--------------------------------------------||

|--------------------------------------------||

|--------------------------------------------||

|--------------------------------------------||

|---------------0--2---3--(3)--2--0----------||

|---0--3--0--3-----------------------3b3.5-0-||

|

|--10-10----10-10----/15-(15)-13-------------||

|--------10-------10-------------15---------||

|--------------------------------------------||

|--------------------------------------------||

|--------------------------------------------||

|--------------------------------------------||

 D5      E5

|--------------------|

|--------------------|

|--------------------|

|--------------------|

|--0-------2---------|

|--0-------2---------|

|

|--------------------|

|----7--------8s7----|

|-/7---7--(7)-----7--|

|--------------------|

|--------------------|

|--------------------|

 F5                   G5               D5      E5

|-------------------------------------|--------------------|

|-------------------------------------|--------------------|

|-------------------------------------|--------------------|

|-------------------------------------|--------------------|

|---3--------------------5------------|--0-------2---------|

|---3--------------------5------------|--0-------2---------|

|

|-----------8----------/10------------|--------------------|

|-----10---------10---------12s10-----|----7--------8s7----|

|-/10----10---10----10------------12--|-/7---7--(7)-----7--|

|-------------------------------------|--------------------|

|-------------------------------------|--------------------|

|-------------------------------------|--------------------|

 F5                   G5

|-------------------------------------|

|-------------------------------------|

|-------------------------------------|

|-------------------------------------|

|---3--------------------5------------|

|---3--------------------5------------|

|

|-----------8-------------------------|

|-----10---------10----/13--12s10-----|

|-/10----10---10----10------------12--|

|-------------------------------------|

|-------------------------------------|

|-------------------------------------|

|---------------------------------------------|--------------------------||

|---------------------------------------------|--------------------------||

|---------------------------------------------|--------------------------||

|--5--------5-(5)-----5----(5)--5--------5--5-|--5----5-(5)--5-(5)-5-5-5-||

|--5--------5-(5)-----5----(5)--5--------5--5-|--5----5-(5)--5-(5)-5-5-5-||

|--5--------5-(5)-----5----(5)--5--------5--5-|--5----5-(5)--5-(5)-5-5-5-||

|

|---------------------------------------------|--------------------------||

|-10-------12--------10--------12-------10-12-|-10-12---10--12-12-------||

|----10-------12--------10--------12----10-12-|-10-12---10--12-12-------||

|-------10--------12-------10--------12-------|--------------------------||

|---------------------------------------------|--------------------------||

|---------------------------------------------|--------------------------||

Chorus

 D5     C5       G5

 PM|    PM|       PM|       PM------------

|---------------|-------------------------|

|---------------|-------------------------|

|---------------|-------------------------|

|-----7------5--|-------------------------|

|-5-5-5--3-3-3--|-------5-----------------|

|---------------|--5-5--5----5--5---5---5-|

|

|                       ~~~~~~~~

|---------------|-------------------------|

|---------------|-------------------------|

|-----5------3--|------10--(10)---(10)---|

|---4------2----|----9--------------------|

|-5------3------|-10----------------------|

|---------------|-------------------------|

 D5     C5       G5

---|    PM|       PM|

|---------------|-------------------------------|

|---------------|-------------------------------|

|---------------|-------------------------------|

|-----7------5--|---------------------0---------|

|-5-5-5--3-3-3--|-------5-------0-2-3---2-------|

|---------------|--5-5--5-----------------3-0---|

|

|                             ~~

|---------------|-------------------------------|

|---------------|------------12-----------------|

|-----5------3--|------10-----------------------|

|---4------2----|----9----12--------------------|

|-5------3------|-10----------------------------|

|---------------|-------------------------------|

 D5     C5       G5                        Bb5

 PM|    PM|       PM|       PM---------|

|---------------|-------------------------|------|

|---------------|-------------------------|------|

|---------------|-------------------------|-3----|

|-----7------5--|-------------------------|-3----|

|-5-5-5--3-3-3--|-------5-----------------|-1----|

|---------------|--5-5--5----5--5---5---5-|------|

|

|                       ~~~~~~~~

|---------------|-------------------------|------|

|---------------|-------------------------|------|

|-----5------3--|------10--(10)---(10)---|------|

|---4------2----|----9--------------------|------|

|-5------3------|-10----------------------|------|

|---------------|-------------------------|------|

            H.=H

 C5         D5

|----------|----------|--------||

|----------|----------|--------||

|-5--------|-7--------|-(7)----||

|-5--------|-7--------|-(7)----||

|-3--------|-5--------|-(5)----||

|----------|----------|--------||

Outro

 D                 D/C

 Gtr I

|----------------------------------------|

|----------------------------------------|

|----------------------------------------|

|----0------4----------0------4----------|

|-5---------------5-3---------------3----|

|----------------------------------------|

|

| Gtr II

|------14-(14)-----------14-(14)------14-|

|---15---------15-----13---------13------|

|----------------------------------------|

|----------------------------------------|

|----------------------------------------|

|----------------------------------------|

 D/B                  D/A                    D                 D/C

|-------------------------------------------|----------------------------------------|

|-------------------------------------------|----------------------------------------|

|-------------------------------------------|----------------------------------------|

|----0------4--------------0-----4----------|-----------4----------0------4----------|

|-2---------------2-----0-------------------|----5------------5-3---------------3----|

|-------------------------------------3b3.5-|-0--------------------------------------|

|

|------14-(14)------14-10-------------------|------14-(14)-----------14-(14)------14-|

|---12---------12---------10-10-10-10-------|---15---------15-----13---------13------|

|-------------------------------------------|----------------------------------------|

|-------------------------------------------|----------------------------------------|

|-------------------------------------------|----------------------------------------|

|-------------------------------------------|----------------------------------------|

 D/B                  D/A

|-------------------------------------------|

|-------------------------------------------|

|-------------------------------------------|

|----0------4--------------0-----4----------|

|-2---------------2-----0-------------------|

|-------------------------------------3b3.5-|

|

|------14-(14)------14-10-------------------|

|---12---------12---------10-10-10-10-------|

|-------------------------------------------|

|-------------------------------------------|

|-------------------------------------------|

|-------------------------------------------|

 D                 D/C                    D/B                  D/A

|----------------------------------------|-------------------------------------------|

|----------------------------------------|-------------------------------------------|

|----------------------------------------|-------------------------------------------|

|-----------4----------0------4----------|----0------4--------------0-----4----------|

|----5------------5-3---------------3----|-2---------------2-----0-------------------|

|-0--------------------------------------|-------------------------------------3b3.5-|

|

|------14-(14)-----------14-(14)------14-|------14-(14)------14-10-------------------|

|---15---------15-----13---------13------|---12---------12---------10-10-10-10-------|

|----------------------------------------|-------------------------------------------|

|----------------------------------------|-------------------------------------------|

|----------------------------------------|-------------------------------------------|

|----------------------------------------|-------------------------------------------|

   D       D/C       D/B     D/A

||------------------|---------------------|

||o-----------------|---------------------|

||------------------|---------------------|

||------4-----0-4---|---0-4-----0-4-------|

||o---5---5-3-----3-|-2-----2-0-----------|

||--0---------------|---------------3b3.5-|

 D       D/C       D/B     D/A

                                        3x

|-----------------|----------------------||

|-----------------|---------------------o||

|-----------------|----------------------||

|-----4-----0-4---|---0-4-----0-4--------||

|---5---5-3-----3-|-2-----2-0-----------o||

|-0---------------|---------------3b3.5--||

 D                     D/C

|----------------------------------------------|

|----------------------------------------------|

|----------------------------------------------|

|-----------4---------------0------4-----------|

|----5-------------5-----3----------------3----|

|-0--------------------------------------------|

|

| Gtr II

|------14-(14)----------------14-(14)-------14-|

|---15---------15----15-13------------13-------|

|-----------------14-------14------------14----|

|----------------------------------------------|

|----------------------------------------------|

|----------------------------------------------|

 D/B                    D/A

|--------------------------------------------------|

|--------------------------------------------------|

|--------------------------------------------------|

|-----0------4---------------0-----4---------------|

|--2----------------2-----0------------------------|

|----------------------------------------3b3.5-----|

|

|-------14-(14)-------14----10---------------------|

|-12------------12-------10----10----10------------|

|----14------------14-------------11----10h====11--|

|--------------------------------------------------|

|--------------------------------------------------|

|--------------------------------------------------|

 D                   D/C

|---------------------------------------------|

|---------------------------------------------|

|---------------------------------------------|

|----------4-----------------0-----4----------|

|----5-----------5-----3-----------------3----|

|--0------------------------------------------|

|

|------17----17----17----------17----17----17-|

|------------------------15-------------------|

|---------14----14----14----14----14----14----|

|-12------------------------------------------|

|---------------------------------------------|

|---------------------------------------------|

 D/B                     D/A

|------------------------------------------------------|

|------------------------------------------------------|

|------------------------------------------------------|

|--------0-----4-----------------0-----4---------------|

|--2-----------------2-----0---------------------------|

|--------------------------------------------3b3.5-----|

|

|----------17----------17----------17----17------------|

|----15----------15----------15--------------------15--|

|-14----14----14----14----14----14----14----14---------|

|------------------------------------------------------|

|------------------------------------------------------|

|------------------------------------------------------|

 D                    D/C

|-------------------------------------------|

|-------------------------------------------|

|-------------------------------------------|

|--------

Del dette innlegget


Lenke til innlegg
Del på andre sider

Det eneste jeg fant på Bittersuit var dette:

Bittersuite

Quaternary / Supersonic & Demonic Relics

Motley Crue





Tune down (DGCFAD)





B B A B (2x)

E E D B (2x)

D B E D

D D D B

Del dette innlegget


Lenke til innlegg
Del på andre sider

ApoteX slår til igjen 8) Bra du har så mye fine tabs å dele

Del dette innlegget


Lenke til innlegg
Del på andre sider

Opprett en konto eller logg inn for å kommentere

Du må være et medlem for å kunne skrive en kommentar

Opprett konto

Det er enkelt å melde seg inn for å starte en ny konto!

Start en konto

Logg inn

Har du allerede en konto? Logg inn her.

Logg inn nå

  • Hvem er aktive   0 medlemmer

    Ingen innloggede medlemmer aktive

×
×
  • Opprett ny...

Viktig informasjon

Dette nettstedet bruker cookies for å gi deg en best mulig brukeropplevelse Bruksvilkår.