Web Analytics
Gå til innhold
  • Bli medlem

Anbefalte innlegg

  • Svar 200
  • Created
  • Siste svar

Top Posters In This Topic

Top Posters In This Topic

Popular Posts

"scenebetenelse"? hehe, du mener vel senebetennelse. Scenebetennelse er kanskje et nytt ord for sceneskrekk? Det trenger du øl for å forebygge

en måte som jeg syntes er bra er denne: --1-2-3-4-------------------------------------------- ----------1-2-3-4------------------------------------ -------------------1-2-3-4-------------------------

  • 1 month later...

Glimrende tråd :D

Er endelig tilbake i gitarverdenen etter en pause på 10-12 år :shock: Føler meg som en komplett n00b :P

Foretrekker å varme opp med skalaer av samme grunn som Fredrik, god trening for improv. Smart med øvelser som øker styrke og elastisitet i fingrene også!

Nå som jeg har tatt opp gitaren igjen er det stort sett skalaer og plekterøvelser det går i, for å prøve å få opp tempo til et noenlunde nivå. Prøvde meg på noen låter av gamle helter i går kveld, tror nok jeg må trene en stund før jeg er klar ;-)

EDIT: første post, joh!

Lenke til innlegg
Del på andre sider
Glimrende tråd  :D  

Er endelig tilbake i gitarverdenen etter en pause på 10-12 år  :shock: Føler meg som en komplett n00b :P

Foretrekker å varme opp med skalaer av samme grunn som Fredrik, god trening for improv. Smart med øvelser som øker styrke og elastisitet i fingrene også!  

Nå som jeg har tatt opp gitaren igjen er det stort sett skalaer og plekterøvelser det går i, for å prøve å få opp tempo til et noenlunde nivå. Prøvde meg på noen låter av gamle helter i går kveld, tror nok jeg må trene en stund før jeg er klar ;-)

EDIT: første post, joh!

Hva fikk deg til å være borte fra gitaren så lenge? Jeg synes det var et helvete å spille gitar etter 2 uker i Kreta lzm. Löcka tel.

Lenke til innlegg
Del på andre sider

Hiver meg rett inn i en eller annen rask punksang uten no særlig med riff eller soloer. Så spiller jeg et par rolige sanger med enkle riff, tar et par bluesskalaer nå og da, og spiller deretter de sangene som faller meg inn. Ikke så mye til oppvarming, men etter et år med slik spilling har jeg verken noe slitasje eller senebetennelse som følger av gitar/bass.

Lenke til innlegg
Del på andre sider

Hva fikk deg til å være borte fra gitaren så lenge? Jeg synes det var et helvete å spille gitar etter 2 uker i Kreta lzm. Löcka tel.

Long story short: Mye som skjedde på andre fronter i livet + gitaren ble solgt av en "kompis" som lånte den :evil: Valgte å gå en annen vei, har egentlig angret på det siden :oops: Er ENDELIG tilbake :D

Lenke til innlegg
Del på andre sider
  • 2 weeks later...

Denne her syns jeg er ganske fin og morsom å varme opp med:

--------------------------------------------------------------------------

--12-10-0-10-8-0-8-7-0-7-5-0-5-----------------------------------

--------------------------------------------------------------------------

--------------------------------------------------------------------------

--------------------------------------------------------------------------

--------------------------------------------------------------------------

Men den er best å spille etter at man har spilt noen skalaer først.

Prøv å spill den så fort som mulig, for å få igang fingrene.

Lenke til innlegg
Del på andre sider
  • 4 weeks later...

Ok, får prøve meg på min første tab. Denne er kjekk både til oppvarming og en god strekkøvelse for alle fingrene.



e --------------9------------8-----------8----------8----------8-----------7----

B ----------10-----------10-----------9----------9----------9-----------9-------

G ------11-----------11-----------11---------10---------10----------10----------

D --12-----------12-----------12---------12---------11----------11--------------

A ------------------------------------------------------------------------------

E ------------------------------------------------------------------------------

Osv. Flytt én og én finger så langt du kommer. Denne kan gjøre vondt til å begynne med, men den er kjempefin trening. Bruk gjerne metronom i et behagelig tempo.

Lenke til innlegg
Del på andre sider
  • 4 weeks later...

----------------------------------------------------------- 

---5-------------------6---5------5-------------------------

------8---7---6---5-----------8-------8---7---6---5---6---7---8

-----------------------------------------------------------

-----------------------------------------------------------

-----------------------------------------------------------



-----------------------------------------------------------

---5-------------------6---5------5-------------------------

------8---7---6---5-----------8-------8---7---6---5---6---7---8

-----------------------------------------------------------

-----------------------------------------------------------

-----------------------------------------------------------



---------------------------------------------------------------------------------

---10--------------------------11---10--------10---------------------------------

---------13---12---11---10--------------13------13---12---11---10---11---12---13  

---------------------------------------------------------------------------------        

---------------------------------------------------------------------------------

---------------------------------------------------------------------------------



---------------------------------------------------------------------------------

---10--------------------------11---10--------10---------------------------------

---------13---12---11---10--------------13------13---12---11---10---11---12---13-  

---------------------------------------------------------------------------------    

---------------------------------------------------------------------------------

---------------------------------------------------------------------------------

Jeg spiller dette rasktløpende når jeg varmer opp.

Edit: er ikke så flink til å tabbe :S

Lenke til innlegg
Del på andre sider

Jeg for min del spiller masse 1-2-3-4 øvelser og variasjoner av denne. I tillegg til at det er godt oppvarming(hvis du begynner sakte og øker farten) er øvelsen bra for å trene opp fart, presisjon og koordinasjon. Skalaøvelser er også bra som oppvarming og trening generelt. Pass på at du ikke "låser" deg fast, men bruk skalaen som et utgangspunkt og improviser. Å massere fingre, håndledd armer og skuldre er bra for å få fart i blodomløpet. Samme med å holde hende i varmt vann før du begynner å spille.

Lenke til innlegg
Del på andre sider

Opprett en konto eller logg inn for å kommentere

Du må være et medlem for å kunne skrive en kommentar

Opprett konto

Det er enkelt å melde seg inn for å starte en ny konto!

Start en konto

Logg inn

Har du allerede en konto? Logg inn her.

Logg inn nå
  • Hvem er aktive   0 medlemmer

    Ingen innloggede medlemmer aktive


  • Siste aktive tråder

    • 4 klassikere kom i går.
    • Ja, bare spenningsfall over to dioder, selvførgelig, det går vel ikke strøm gjennom D19 og D23, de skal bare hindre strøm å gå "tilbake til minus. De blir forøvrig brennvarme de også. Ok, men hva menes med RMS spenning? Jeg målte 11V på rørsoklene også. Det var noe forskjell før og etter R 82, (bortimot 1V). Men som jeg skrev, med fire rør på plass, måler jeg nøyaktig 7.04V , det skal vel gå. Jeg målte også på motstanden i rørenene, som ligger på ca 6.4 ohm eller 3.4 ohm målt med pin 4 og 5 sammen. Det er vel helt normale verdier. I V1 derimot, er det satt i et Electro Harmonics som har motstand på hele 12.5 ohm. Så det trekker kanskje mere strøm...eller egentlig mindre, når jeg tenker meg om....
    • 8.2 er RMS spenninga. Gang den med kvadratroten av 2 så har du sånn ca 11.6 VAC Peak to peak. Og så er det spenningsfall over to dioder i en sånn likeretter, ikke alle fire ! Og hvis du måler rett etter likerettern uten noe filterkondiser er det jo ikke ren DC ...     
    • Da er de nye diodene lodda på plass. For at de skal få litt kjøling, lodda jeg de med noe lengde på beina, litt opp fra print kortet, og bøyde de to ytterste litt til siden. Så målte jeg, 8.2V veksel fra trafo, inn på likeretter'n, og ut, 11V...hæh? Skulle ikke de fire diodene til sammen suge ca 2.4 V? Annivay, jeg satte i fire gamle rør, så kretsen fikk last, og, strømstyrke droppa ned til 7V. Så da er vel allt i orden da....
    • Hvis du har en av/på-switch til loopen vil du vel kun få input hvis den er av, og kun loop return hvis den er på? Men parallell loop vil nok også fungere ja
  • http://www.BILDELERstore.co.no

  • Støtt driften av GitarNorge


  • Https://Www.AutoDELER.co.NO
×
×
  • Opprett ny...

Viktig informasjon

Dette nettstedet bruker cookies for å gi deg en best mulig brukeropplevelse Bruksvilkår.