Web Analytics
Gå til innhold
  • Bli medlem

Noen som kan lage en tab. til meg?


Anbefalte innlegg

Fikk svar av en kar jeg spurte:

e|---------------------------------------------------------------------------------------------------------12-12---------

H|------------------------------------------------------------------------12-12----------15-15-12h15------------15p12

G|------------------------------------------12-12---------14-14-12h14---------14p12----------------------------------

D|---------12-12---------14-14-12h14-----------14p12------------------------------------------------------------------

A|-12-14--------14p12-----------------------------------------------------------------------------------------------------

E|-----------------------------------------------------------------------------------------------------------------------------

e|----------

H|--15b(1)-

G|----------

D|----------

A|----------

E|----------

Lenke til innlegg
Del på andre sider
Fikk svar av en kar jeg spurte:

e|---------------------------------------------------------------------------------------------------------12-12---------

H|------------------------------------------------------------------------12-12----------15-15-12h15------------15p12

G|------------------------------------------12-12---------14-14-12h14---------14p12----------------------------------

D|---------12-12---------14-14-12h14-----------14p12------------------------------------------------------------------

A|-12-14--------14p12-----------------------------------------------------------------------------------------------------

E|-----------------------------------------------------------------------------------------------------------------------------

e|----------

H|--15b(1)-

G|----------

D|----------

A|----------

E|----------

Nå spiller du delayen selv? Manuel delay :o

Lenke til innlegg
Del på andre sider
Fikk svar av en kar jeg spurte:

e|---------------------------------------------------------------------------------------------------------12-12---------

H|------------------------------------------------------------------------12-12----------15-15-12h15------------15p12

G|------------------------------------------12-12---------14-14-12h14---------14p12----------------------------------

D|---------12-12---------14-14-12h14-----------14p12------------------------------------------------------------------

A|-12-14--------14p12-----------------------------------------------------------------------------------------------------

E|-----------------------------------------------------------------------------------------------------------------------------

e|----------

H|--15b(1)-

G|----------

D|----------

A|----------

E|----------

Nå spiller du delayen selv? Manuel delay :o

Hva mener du med delay?

Lenke til innlegg
Del på andre sider
  • 2 weeks later...

Opprett en konto eller logg inn for å kommentere

Du må være et medlem for å kunne skrive en kommentar

Opprett konto

Det er enkelt å melde seg inn for å starte en ny konto!

Start en konto

Logg inn

Har du allerede en konto? Logg inn her.

Logg inn nå
  • Hvem er aktive   0 medlemmer

    Ingen innloggede medlemmer aktive

×
×
  • Opprett ny...

Viktig informasjon

Dette nettstedet bruker cookies for å gi deg en best mulig brukeropplevelse Bruksvilkår.