Gå til innhold
bove

"Rulle" med venstrehånda under sweeping

Anbefalte innlegg

Helt siden jeg hørte soloen til "Glass Prison" av DT har jeg hatt lyst til å lære meg den, problemet har bare vært at den har gått altfor fort. Jeg prøvde å meg lenge med alternate picking, men det kom ikke særlig over halvt tempo før det ble stygt. Hadde aldri tidligere tenkt på at det var noe som het 3-strengs sweeping før jeg leste det i en tutorial, og pluttselig skjønte jeg hva som skulle til for å klare soloen. Klarer de første taktene på omtrent 160 bpm nå, men denne takten plager meg:

--------------------------------------------------|

--15-12----------12-15-12----------12-15-12-------|

--------12----12----------12----12----------12----|

-----------12----------------12----------------12-|

--------------------------------------------------|

--------------------------------------------------|

--------------------------------------------------|

Er helt ny i forhold til sweeping og har kun nylig begynt å få det til, men akkurat dette med rulling virker nesten umullig. Det er jo sørenmeg ikke mulig å bøye fingra nok til det der uten å knekke dem :shock:

Noen hemmelige triks jeg ikke vet om?

Del dette innlegget


Lenke til innlegg
Del på andre sider



E|-10-7-------7-10-osv--------------------------------|

B|------8---8-----------------------------------------|

G|--------7-------------------------------------------|

Aner ikke hvordan soloen er før og etter, men dette er en mulig løsning i det minste. :)

Del dette innlegget


Lenke til innlegg
Del på andre sider

Petrucci bruker faktisk alternate picking på albumversjonen (bortsett fra en pull-off på de første to notene og et 6-strengssweep). Live bruker han noen ganger sweeping hvis Portnoy spiller for fort (hvilket ofte er tilfelle). Og ja, det er en jævlig vrien solo.

Hva 'rullingen' angår, så er det bare et spørsmål om øving. Ellers TROR jeg forsåvidt at Petrucci spiller den arpeggioen slik, altså uten 'rulling':

-15-12-------------12-15-12----

-----------------------------------

---------17-12-17--------------- etc.

Del dette innlegget


Lenke til innlegg
Del på andre sider
Petrucci bruker faktisk alternate picking på albumversjonen (bortsett fra en pull-off på de første to notene og et 6-strengssweep). Live bruker han noen ganger sweeping hvis Portnoy spiller for fort (hvilket ofte er tilfelle). Og ja' date=' det er en jævlig vrien solo.

Hva 'rullingen' angår, så er det bare et spørsmål om øving. Ellers TROR jeg forsåvidt at Petrucci spiller den arpeggioen slik, altså uten 'rulling':

-15-12-------------12-15-12----

-----------------------------------

---------17-12-17--------------- etc.[/quote']

Stemmer det med den der. Sto faktisk sånn i den første tabben jeg noen gang så til soloen. Det var den eneste biten jeg klarte da. Hadde helt glemt det jeg :oops:

Del dette innlegget


Lenke til innlegg
Del på andre sider

E||--------------------21-24-||

B||-----------14-17----------||

G||--------14-------21-------||

D||-----14-------------------||

A||--16----------------------||

E||--------------------------||

B||--------------------------||

how? :cry: skjønner ikke fingerplasseringa der!

Del dette innlegget


Lenke til innlegg
Del på andre sider
E||--------------------21-24-||

B||-----------14-17----------||

G||--------14-------21-------||

D||-----14-------------------||

A||--16----------------------||

E||--------------------------||

B||--------------------------||

how? :cry:  skjønner ikke fingerplasseringa der!

du bruker vel barregrep skulle jeg tro

Del dette innlegget


Lenke til innlegg
Del på andre sider
E||--------------------21-24-||

B||-----------14-17----------||

G||--------14-------21-------||

D||-----14-------------------||

A||--16----------------------||

E||--------------------------||

B||--------------------------||

how? :cry:  skjønner ikke fingerplasseringa der!

Mener faktisk det er slik den skal gå:

E||--------------------21-24-|---||

B||--------------17-17-------|---||

G||-----------18-------------|---||

D||--------19----------------|---||

A||-----19-------------------|---||

E||--17----------------------|---||

Der kan du jo til nød droppe 6. noten uten at noen merker det :mrgreen:

Første del av Glass Prison Soloen:

http://home.no.net/theflash/divbilder/glassprison.wmv

Del dette innlegget


Lenke til innlegg
Del på andre sider

de tre første taktene var bra. resten kjente jeg nesten igjen. vi har begge jævlig mye øving igjen der:D

Del dette innlegget


Lenke til innlegg
Del på andre sider

Jepp :D

Har øvd en stund på taktene hver for seg, men det blir fort verre når man skal begynne å spille de rett etter hverandre

Del dette innlegget


Lenke til innlegg
Del på andre sider

eller i rett tempo for den saks skyld :P greier også de første, men 4 takta har jeg problemer med... åssen legger man ut en innspilling? mulig å sende på pm?

Del dette innlegget


Lenke til innlegg
Del på andre sider

Du må laste opp filene på en server. Home.no er greit om du bare skal ha det til fillagring.

Del dette innlegget


Lenke til innlegg
Del på andre sider

Opprett en konto eller logg inn for å kommentere

Du må være et medlem for å kunne skrive en kommentar

Opprett konto

Det er enkelt å melde seg inn for å starte en ny konto!

Start en konto

Logg inn

Har du allerede en konto? Logg inn her.

Logg inn nå

  • Hvem er aktive   0 medlemmer

    Ingen innloggede medlemmer aktive

×
×
  • Opprett ny...

Viktig informasjon

Dette nettstedet bruker cookies for å gi deg en best mulig brukeropplevelse Bruksvilkår.