Web Analytics
Jump to content

Big Bang


Recommended Posts

E-------------------------------------------------------------------------------------------------------------------------------------------------------------------

B---5-----5-----5-----5------7-----------5------------5----5-----7-----5------------------------------------------------------------------------------------

G---5-----5-----5-----5------7-----------5----0------5----5-----7-----5------------------------------------------------------------------------------------

D---7-----7-----7-----7------7-----------5----0------7----7-----7-----7------------------------------------------------------------------------------------

A---0-----0-----0-----0------0------0---0------------0----0-----0-----0----------------------3-------------5------7--------------------------------3----

E---------------------------------------------------------------------------------------3------5--------------5--------------------5------3------5-------------

det er hvertfall første del. Går vel egentlig sånn for det meste av sangen. Helt på slutten der du spiller bare på en

streng er jeg litt usikker på om det er riktig, men når jeg spiller så høres det greit ut :)

Også må du finne rytmen da ellers høres det kanskje ikke så riktig ut...

Kan ta det "solo" greiene og hvis du vil

Link to comment
Share on other sites

E------------------------------------------------------------------------------------------------------------------------5------------------------------------------------

B------------------------------------------------------------------------------------------------------------------------------5------------------------------------------

G-------------------------------------------------------------------------------------------5--------7---7b---8--------------------7/8--------5---------------------

D------------------5------------5------------5-----------5------------5h7------------------------------------------------------------------------------7------------

A---------5h7--------5h7---------5h7--------5h7--------------------------5h7----------------------------------------------------------------------------------

E-------------------------------------------------------------------5-----------------------------------------------------------------------------------------------------

tror den solo greia er noe sånt. På --5--------7---7b---8--- er jeg noe usikker. Begynnelsen er hvertfall sånn også er det noe mer

men det husker jeg ikke...

Link to comment
Share on other sites

Create an account or sign in to comment

You need to be a member in order to leave a comment

Create an account

Sign up for a new account in our community. It's easy!

Register a new account

Sign in

Already have an account? Sign in here.

Sign In Now
 Share

  • Recently Browsing   0 members

    No registered users viewing this page.

×
×
  • Create New...

Important Information

By using this site, you agree to our Terms of Use.