Web Analytics
Jump to content

Gluecifer tabs


Recommended Posts

  • 1 year later...

Finner ingenting.. du har sikkert lett veldig hardt :P

GLUECiFER - Easy Living







Bass-Riff (Played through the whole song, first 1 times without guitar)

G|--------------------------------------------------

D|--------------------------------------------------

A|--------------------------------------------------

E|-6-6--6-6-6--6-6-6--9-9--0-6-6--6-6-6--6-6-6--9-9-



G|--------------------------------------------------

D|--------------------------------------------------

A|--------------------------------------------------

E|-4-4--4-4-4--4-4-4--9-9--0-6-6--6-6-6--6-6-6--9-9-



Guitar-Riff Intro/Verse

E|------------------------------------------------------

H|------------------------------------------------------

G|------------------------------------------------------

D|------------------------------------------------------

A|-8-8--8-8-8--8-8-8--11-11--x-8-8--8-8-8--8-8-8--11-11-

E|-6-6--6-6-6--6-6-6--9--9---x-6-6--6-6-6--6-6-6--9--9--



Guitar-Riff Chorus (heavy distortion)

E|------------------------------------------------------

H|------------------------------------------------------

G|-8-8-8-8--11-11-11-11--6-6-6-6--13-13-13-13-----------

D|-8-8-8-8--11-11-11-11--6-6-6-6--13-13-13-13-----------

A|-6-6-6-6--9--9--9--9---4-4-4-4--11-11-11-11-----------

E|------------------------------------------------------



Guitar-Riff Outro

E|-----------------------------------------------------------

H|-----------------------------------------------------------

G|-8-8-8-8--11-11-11-11--6-6-6-6--13-13-13-13-13-13-13-13-8--

D|-8-8-8-8--11-11-11-11--6-6-6-6--13-13-13-13-13-13-13-13-8--

A|-6-6-6-6--9--9--9--9---4-4-4-4--11-11-11-11-11-11-11-11-6--

E|-----------------------------------------------------------



Bridge

Bass-Riff

G|-------------------

D|-------------------

A|-------------------

E|-6-6--6-6-6--6-6-6-  played several times





Intro

Verse

Chorus

Verse

Chorus

Bridge

Chorus

Outro

Link to comment
Share on other sites

Create an account or sign in to comment

You need to be a member in order to leave a comment

Create an account

Sign up for a new account in our community. It's easy!

Register a new account

Sign in

Already have an account? Sign in here.

Sign In Now
 Share

  • Recently Browsing   0 members

    No registered users viewing this page.

×
×
  • Create New...

Important Information

By using this site, you agree to our Terms of Use.