Gå til innhold
Floydian

Skalaspørsmål

Anbefalte innlegg

I ganske heavy musikk har jeg sett blant annet Dream Theater bruke en skala som er ganske tøff. (As I Am f. eks)

Den begynner sånn:

0-1-3-4

Problemet er at jeg ikke vet hvordan den skal gå videre. Er det noen her som vet det? Trenger svar litt raskt.

Del dette innlegget


Lenke til innlegg
Del på andre sider

Hvis intervallene går halvtone/heltone/halvtone/heltone/osv, er det «diminished scale» det er snakk om.

Del dette innlegget


Lenke til innlegg
Del på andre sider

det kan jo være mange skalaer, sånn som C Major og G Major er ganske like foruten en note, slik er vell de mest Major skalaene såvidt jeg husker, så bare prøv deg frem, finn masse skalaer, heh

Del dette innlegget


Lenke til innlegg
Del på andre sider

Nå har jeg funnet ut mer:

-0-1-3-4- og så en del noter som jeg ikke hvet hva er -10-12

E||--------------------------------|--------------------------------||

B||--------------------------------|--------------------------------||

G||-------------------------------|---------------------------------||

D||-------------------------------|---------------------------------||

A||--------------4-3-1-4-3-1-4--|--3-----------4-3-1-4-3-1-3--||

E||-------------------------------|---------------------------------||

B||--1--1--1--1------------------|-----1--1--1-------------------||

Eksempel fra As I Am

Del dette innlegget


Lenke til innlegg
Del på andre sider
Er jeg helt [sensurert] hvis jeg skriver: Bare prøv deg fram. ?

Skal prøve, men det er ikke så lett! Får det liksom ikke til å stemme.

Del dette innlegget


Lenke til innlegg
Del på andre sider
Nå har jeg funnet ut mer:

-0-1-3-4- og så en del noter som jeg ikke hvet hva er -10-12

E||--------------------------------|--------------------------------||

B||--------------------------------|--------------------------------||

G||-------------------------------|---------------------------------||

D||-------------------------------|---------------------------------||

A||--------------4-3-1-4-3-1-4--|--3-----------4-3-1-4-3-1-3--||

E||-------------------------------|---------------------------------||

B||--1--1--1--1------------------|-----1--1--1-------------------||

Eksempel fra As I Am

Det riffet befinner seg innenfor phrygianskalaen.

"Enter Sandman-riffet" i As I Am er i blues skalaen.

Del dette innlegget


Lenke til innlegg
Del på andre sider
det kan jo være mange skalaer, sånn som C Major og G Major er ganske like foruten en note, slik er vell de mest Major skalaene såvidt jeg husker, så bare prøv deg frem, finn masse skalaer, heh

Man skal ikke undervurdere den ene, "lille", "ubetydelige" nota. Melodisk moll og dur er jo omtrent to ulike univers innenfor harmonien. Selv om melodisk moll "bare" er durskalaen med senket ters. :)

Del dette innlegget


Lenke til innlegg
Del på andre sider
Selv om melodisk moll "bare" er durskalaen med senket ters. :)

I oppgang. :) I nedgang spilles den som ren moll.

Del dette innlegget


Lenke til innlegg
Del på andre sider
Selv om melodisk moll "bare" er durskalaen med senket ters. :)

I oppgang. :) I nedgang spilles den som ren moll.

Du har rett i det. Dette finner du særlig mye av i klassisk musiskk. I jazzen derimot, tenker man som regel melodisk moll som 1 2 b3 4 5 6 7 skalaen, uavhengig av om du skal opp eller ned.

Del dette innlegget


Lenke til innlegg
Del på andre sider
Selv om melodisk moll "bare" er durskalaen med senket ters. :)

I oppgang. :) I nedgang spilles den som ren moll.

Du har rett i det. Dette finner du særlig mye av i klassisk musiskk. I jazzen derimot, tenker man som regel melodisk moll som 1 2 b3 4 5 6 7 skalaen, uavhengig av om du skal opp eller ned.

Ja, det er jo "latterlig" å spille forskjellig opp og ned egentlig, men det har jo med spenning/oppløsning å gjøre. Greit å vite, fullt lovlig å spille annerledes en "regelboka". :)

Del dette innlegget


Lenke til innlegg
Del på andre sider

stor forskjell i helhet, men ikke så stor i oppramsing av notene som er med hehe, er selv ganske ny på skalaer, erm

Del dette innlegget


Lenke til innlegg
Del på andre sider

Opprett en konto eller logg inn for å kommentere

Du må være et medlem for å kunne skrive en kommentar

Opprett konto

Det er enkelt å melde seg inn for å starte en ny konto!

Start en konto

Logg inn

Har du allerede en konto? Logg inn her.

Logg inn nå

  • Hvem er aktive   0 medlemmer

    Ingen innloggede medlemmer aktive

×
×
  • Opprett ny...

Viktig informasjon

Dette nettstedet bruker cookies for å gi deg en best mulig brukeropplevelse Bruksvilkår.