Gå til innhold
Fredrik

Fingersetting

Anbefalte innlegg

Helt tilfeldig så jeg 5 ulike eksemplarer av en tab hvor de skrev følgende slik:

E|----------------------------------

H|----------------------------------

G|----------------------------------

D|---------------------4---6---8----

A|---------4---6---8----------------

E|----------------------------------

Er det ikke mer korrekt å skrive det slik:

E|----------------------------------

H|----------------------------------

G|-----------------------------3----

D|-----------------3---4---6--------

A|---------4---6--------------------

E|----------------------------------

All konstruktiv kritikk ønskes!

Del dette innlegget


Lenke til innlegg
Del på andre sider

Den med 3 toner pr.streng er en lettere måte å spille det løpet på.

Bare prøv selv. Tonene ligger rett nedenfor hverandre på gitaren, og du slipper å bevege fingrene så mye.

Del dette innlegget


Lenke til innlegg
Del på andre sider

Den siste er feil. Men bare den siste tonen, den skulle vært en 3. ;)

Som det sies, smak og behag. Samtidig er det greit å vite at det finnes ulike måter å gjøre det på. Se for deg at neste tone var 9 på lys E streng. Hvis forrige tone var på 8. bånd så er det et minimalt hopp. Hvis du spilte på 3. bånd ville hoppet blitt lengre. :)

Del dette innlegget


Lenke til innlegg
Del på andre sider

Jau. Jeg ville definitivt spilt den første, ettersom den er enklest.

Men på den andre siden; si at jeg kommer fra ett eller annet riff som ligger litt nedenfor slik at jeg må gjøre et vilt posisjonsløp for å komme til det løpet. I det tilfellet ville jeg gjort en figur mer lik den siste, på andre strenger

Si feks. Goodbye Elanore av Toto, cluet er at du rett etterpå skal ned på en C# - D greie (dvs. til C# og rett opp på D'en etter en 8'ende del). Kan jo spilles høyt på halsen det også, men du må uansett flytte hånda på ett elelr annet tidspunkt.



E -----------------------------------------

H ----------------------------------------

G ------------------------11-13-14------

D ------------11-12-14------------------

A ---12--14------------------------------

E -----------------------------------------

Velger jeg å spille:



E ----------------------4-5------------------

H ----------------5-7-----------------------

G --------4-6-7------------------------------

D -----7-----------------------------------

A ----------------------------------------

E -----------------------------------------

Men igjen smak og behag :P

Del dette innlegget


Lenke til innlegg
Del på andre sider

Opprett en konto eller logg inn for å kommentere

Du må være et medlem for å kunne skrive en kommentar

Opprett konto

Det er enkelt å melde seg inn for å starte en ny konto!

Start en konto

Logg inn

Har du allerede en konto? Logg inn her.

Logg inn nå

  • Hvem er aktive   0 medlemmer

    Ingen innloggede medlemmer aktive

×
×
  • Opprett ny...

Viktig informasjon

Dette nettstedet bruker cookies for å gi deg en best mulig brukeropplevelse Bruksvilkår.