Gå til innhold
Caroline

Nasjonal sangene til Norge

Anbefalte innlegg

hei hei. er det noen som har nasjonal sangene til Norge??

vær så snill å sende det på mail!!!!

Del dette innlegget


Lenke til innlegg
Del på andre sider

Og jeg som trodde vi bare hadde en nasjonalsang..jaja, så feil kan man ta. Jeg har ikke tab, men ja vi elsker skal være ganske grei å plukke...

Del dette innlegget


Lenke til innlegg
Del på andre sider

Fikk skrevet ned en del..har ikke mailen din så jeg skriver den her:

Spor 1

                                                                       

E||--0-------------------|----------------------|--0------2--0---------|

B||---------3--2----0----|-------0----2----3----|-----------------3----|

G||----------------------|--2-------------------|----------------------|

D||----------------------|----------------------|----------------------|

A||----------------------|----------------------|----------------------|

E||----------------------|----------------------|----------------------|





                                                                 

-------------------|--2------0------------|-----------------0----|

--2----------------|------------3----2----|--0----2----3---------|

-------------------|----------------------|----------------------|

-------------------|----------------------|----------------------|

-------------------|----------------------|----------------------|

-------------------|----------------------|----------------------|





                                                                 

--0------2--2----4----|--5----------------|--5------5--4---4--2---|

----------------------|-------------------|-----------------------|

----------------------|-------------------|-----------------------|

----------------------|-------------------|-----------------------|

----------------------|-------------------|-----------------------|

----------------------|-------------------|-----------------------|





                                                               

--2--0---------------|--2------2--0----0----|-------------------|

--------------2------|----------------------|--3----------------|

---------------------|----------------------|-------------------|

---------------------|----------------------|-------------------|

---------------------|----------------------|-------------------|

---------------------|----------------------|-------------------|





                                                                   

--0---0--0----2----2-----|--4----4--------5----|------------------||

-------------------------|---------------------|------------------||

-------------------------|---------------------|------------------||

-------------------------|---------------------|------------------||

-------------------------|---------------------|------------------||

-------------------------|---------------------|------------------||

Del dette innlegget


Lenke til innlegg
Del på andre sider

jeg tenker det er bedre å sende det på mail jeg:

ctisell@broadpark.no

men du kan også godt sende noen flere , da er du drit snill

Del dette innlegget


Lenke til innlegg
Del på andre sider

hehe:P jo!

hu mener sikkert de vi synger på 17 mai... 17 mai musikk generelt! :P

*aner ikke hva de heter, men* :P

Del dette innlegget


Lenke til innlegg
Del på andre sider

Hehe... Jo her i Norge har vi hundrevis av nasjonallåter.. :P

Del dette innlegget


Lenke til innlegg
Del på andre sider

Opprett en konto eller logg inn for å kommentere

Du må være et medlem for å kunne skrive en kommentar

Opprett konto

Det er enkelt å melde seg inn for å starte en ny konto!

Start en konto

Logg inn

Har du allerede en konto? Logg inn her.

Logg inn nå

  • Hvem er aktive   0 medlemmer

    Ingen innloggede medlemmer aktive

×
×
  • Opprett ny...

Viktig informasjon

Dette nettstedet bruker cookies for å gi deg en best mulig brukeropplevelse Bruksvilkår.