Gå til innhold
BlueGrot

Future Breed Machine

Anbefalte innlegg

Jess, jeg tabba Meshuggahs Future Breed Machine, denne er saksa rett fra det engelskspråklige forumet jeg originalt posta den på. I tillegg er clean-parti soloen henta fra www.mysongbook.com tabben, men fiksa på.



Intro riff, play 8x during strobe part                                                    

D#||----------------------------|

A#||----------------------------|

F#||----------------------------|

C#||----------------------------|

G#||----------------------------|

D#||--2-2-2---2-2---2-2---2-2-2-|

A#||--0-0-0---0-0---0-0---0-0-0-|



pre-verse riff, there's a triplet-like feel of it, for the purpose of the tab, it's in one bar of 8/4ths and one of 9/4ths

---------------------------------------------------------|

---------------------------------------------------------|

---------------------------------------------------------|

---------------------------------------------------------| 8/4

4s5s4---4--------4------4s5s4--4--------4--------4--------|

4s5s4---4--------4------4s5s4--4--------4--------4--------|

2s3s4---2--------2------2s3s2--2--------2--------2--------|





Second guitar enters. I'm sure about the sliding, but it's quite close in my ears.                                                                  

----------------------------------------------------------------|

----------------------------------------------------------------|

----------------------------------------------------------------|

----------------------------------------------------------------|

4s5s4--4--------4--------4------4s5s4--4--------4--------4------|

4s5s4--4--------4--------4------4s5s4--4--------4--------4------|

2s3s2--2--------2--------2------2s3s2--2--------2--------2------|



And repeat those two measures.







Verse

                                                             

------------------------------|------------------------------|

------------------------------|------------------------------|

------------------------------|------------------------------|

------------------------------|------------------------------|

------------------------------|------------------------------|

--5/4--4-----5/4--4--4--4-----|--5/4--4-----5/4--4--4--4-----|

--3/2--2-----3/2--2--2--2-----|--3/2--2-----3/2--2--2--2-----|





                                                                   

-------------------------------------|------------------------------|

-------------------------------------|------------------------------|

-------------------------------------|------------------------------|

----------------------------------5--|------------------------------|

----------------------------------5--|------------------------------|

--5/4--4-----5/4--4--4--4-----5-5-3--|--5/4--4-----5/4--4--4--4-----|

--3/2--2-----3/2--2--2--2-----3-3----|--3/2--2-----3/2--2--2--2-----|





                                                                   

------------------------------|-------------------------------------|

------------------------------|-------------------------------------|

------------------------------|-------------------------------------|

------------------------------|----------------------------------5--|

------------------------------|----------------------------------5--|

--5/4--4-----5/4--4--4--4-----|--5/4--4-----5/4--4--4--4-----5-5-3--|

--3/2--2-----3/2--2--2--2-----|--3/2--2-----3/2--2--2--2-----3-3----|

Repeat but let the second and last C5 chord of each measure ring.







Pre-chorus, the part I'm not sure about. The tab does not reflect the feel of the A# chords, which sound shuffled.                                                                  

--------------------------------|--------------------------------|

--------------------------------|--------------------------------|

--------------------------------|--------------------------------|

--------------------------------|--------------------------------|

--------------------------------|--------------------------------|

--4----5----2----2----2----2----|--2----2----2----2----2----2----|

--2----3----0----0----0----0----|--0----0----0----0----0----0----|





                                                                 

--------------------------------|--------------------------------|

--------------------------------|--------------------------------|

--------------------------------|--------------------------------|

--------------------------------|--------------------------------|

--------------------------------|--------------------------------|

--5----4----2----2----2----2----|--2----2----2----2----2----2----|

--3----2----0----0----0----0----|--0----0----0----0----0----0----|





                                                                 

--------------------------------|--------------------------------|

--------------------------------|--------------------------------|

--------------------------------|--------------------------------|

--------------------------------|--------------------------------|

--------------------------------|--------------------------------|

--4----5----2----2----2----2----|--2----2----2----2----2----2----|

--2----3----0----0----0----0----|--0----0----0----0----0----0----|





And tail.                                                                      

-----------------------------|----------------------------------------|

-----------------------------|----------------------------------------|

-----------------------------|----------------------------------------|

-----------------------------|----------------------------------------|

-----------------------------|----------------------------------------|

-----------------------------|----------------------------------------|

--0-0-0--0--0-0-0--0--0-0-0--|--0--0-0-0--0--0-0-0--0--0-0-0--0--0----|



Repeat verse.





Chorus, 12/8ths and 13/8ths. Not 100% sure about the b5 chords in the 13/8ths, but there is some added dissonance there.                                                                            

------------------------------------|---------------------------------------|

------------------------------------|---------------------------------------|

------------------------------------|---------------------------------------|

------------------------------------|---------------------------------------|

--3---3---------3---3---------------|--3---3---------3---3------------------|

--1---1---5--4--1---1---5--4--2--4--|--1---1---5--4--2---2---5--4--2--4--5--|

----------3--2----------3--2--0--2--|----------3--2----------3--2--0--2--3--|





                                                                           

------------------------------------|---------------------------------------|

------------------------------------|---------------------------------------|

------------------------------------|---------------------------------------|

------------------------------------|---------------------------------------|

--3---3---------3---3---------------|--3---3---------3---3------------------|

--1---1---5--4--1---1---5--4--2--4--|--1---1---5--4--2---2---5--4--2--4--5--|

----------3--2----------3--2--0--2--|----------3--2----------3--2--0--2--3--|





Intro riff, with strobe part halfway through.



Did not tab the clean guitar.



Middle part with solo.                                                    

---------------------|-------------------------------|

---------------------|-------------------------------|

---------------------|-------------------------------|

---------------------|-----------4-------------------|

------------------5--|-----------2----------------5--|

------------------5--|--4--------2----------------5--|

------------------3--|--2--------0----------------3--|





                                                               

--------------------------------|-------------------------------|

--------------------------------|-------------------------------|

--------------------------------|-------------------------------|

-----------3--------4-----------|-----------4-------------------|

--4--------3--------4--------5--|-----------2----------------5--|

--4--------1--------2--------5--|--4--------2----------------5--|

--2--------------------------3--|--2--------0----------------3--|





                                                       

--------------------------------|----------------------|

--------------------------------|----------------------|

--------------------------------|----------------------|

-----------3--------4-----------|----------------------|

--4--------3--------4--------9/-|--11~-----------------|

--4--------1--------2-----------|----------------------|

--2-----------------------------|----------------------|





                                                               

----------------------------|----------------------------------|

----------------------------|----------------------------------|

----------------------------|----------------------------------|

----------------------------|----------------------------------|

----------------------------|--------12---11---9~-----------8~-|

----------------------------|----------------------------------|

----------------------------|----------------------------------|





                                                               

------------------------------|--------------------------------|

------------------------------|--------------------------------|

------------------------------|--------------------------------|

------------------------------|--------------------------------|

------------------------------|--------9----9/-11~-------------|

----------9~-------7~---------|--------------------------------|

------------------------------|--------------------------------|





                                                             

----------------------------|--------------------------------|

----------------------------|--------------------------------|

----------------------------|--------------------------------|

----------------------------|--------------------------------|

----------------------------|------------------11~-------12--|

----------------------------|--------------------------------|

----------------------------|--------------------------------|





                                       

----------------------------------------|

----------------------------------------|

----------------10----------------------|

----------------------12----11~---------|

--12/14---12~---------------------------|

----------------------------------------|

----------------------------------------|





                                       

----------------------------------------|

----------------------------------------|

----13--13----13----13-14--13~----------|

----------------------------------------|

----------------------------------------|

----------------------------------------|

----------------------------------------|





                                           

--------------------------------------------|

--------------------------------------------|

--13--13----13----14--16----14----13/---11--|

--------------------------------------------|

--------------------------------------------|

--------------------------------------------|

--------------------------------------------|





                                                                   

------------------------------------|------------------------------|

------------------------------------|------------------------------|

----10------------------------------|------------------------------|

----------12----11/---7/---9~-------|--------------11/-------------|

------------------------------------|------------------------------|

------------------------------------|------------------------------|

------------------------------------|------------------------------|





                                                                               

----------------------------------------|--------------------------------------|

----------------------------------------|--------------------------------------|

----------------------------------------|--------------------------------------|

----------7/-------9--------------------|-------------------------------9--11--|

----------------------------11~---------|-----------------8--9--11--12---------|

----------------------------------------|--------------9-----------------------|

----------------------------------------|--------------------------------------|





                                     

-------------------------------------|

-----------------------14~-----------|

--------13---------------------------|

----11------11/---9------------------|

-------------------------------------|

-------------------------------------|

-------------------------------------|





                                                                 

------------------------13--------------16~-|--------------------|

------------12--14--15------15--14--12------|--------------------|

--------------------------------------------|--------------------|

--------------------------------------------|-----------4--------|

----------------------------------------5---|--4--------2--------|

----------------------------------------5---|--4--------2--------|

----------------------------------------3---|--2--------0--------|





                                                           

-------------------|--------------------|-------------------|

-------------------|--------------------|-------------------|

-------------------|--------------------|-------------------|

-------------------|-----------4--------|-------------------|

----------------5--|--4--------2--------|----------------5--|

----------------5--|--4--------2--------|----------------5--|

----------------3--|--2--------0--------|----------------3--|





                                                             

--------------------|-------------------|--------------------|

--------------------|-------------------|--------------------|

--------------------|-------------------|--------------------|

-----------4--------|-------------------|--------------------|

--4--------2--------|----------------5--|--4--------2--------|

--4--------2--------|----------------5--|--4--------2--------|

--2--------0--------|----------------3--|--2--------0--------|





                                                                   

--------------------------|--------------------|-------------------|

--------------------------|--------------------|-------------------|

--------------------------|--------------------|-------------------|

--3--3--3--3--3--3--3-----|-----------4--------|-------------------|

--3--3--3--3--3--3--3--5--|--4--------2--------|----------------5--|

--1--1--1--1--1--1--1--5--|--4--------2--------|----------------5--|

-----------------------3--|--2--------0--------|----------------3--|





                                                             

--------------------|-------------------|--------------------|

--------------------|-------------------|--------------------|

--------------------|-------------------|--------------------|

-----------4--------|-------------------|-----------4--------|

--4--------2--------|----------------5--|--4--------2--------|

--4--------2--------|----------------5--|--4--------2--------|

--2--------0--------|----------------3--|--2--------0--------|





                                                           

-------------------|--------------------|-------------------|

-------------------|--------------------|-------------------|

-------------------|--------------------|-------------------|

-------------------|--------------------|--3----------------|

----------------5--|--4--------2--------|--3----------------|

----------------5--|--4--------2--------|--1----------------|

----------------3--|--2--------0--------|-------------------|



This part is 7/4s played against the drums 4/4s

                                           

------------------------------------------------|

------------------------------------------------|

------------------------------------------------|

------------------------------------------------|

------------------------------------------------|

--4-4-4-4-4-4-4-4-4--------4-4-4-4-4-4-4-4-4----|

--2-2-2-2-2-2-2-2-2--------2-2-2-2-2-2-2-2-2----|



Down a step and triplet eights.



--------------------------------------------------|

--------------------------------------------------|

--------------------------------------------------|

--------------------------------------------------|

--2----2----2----2------------2----2----2----2----|

--2----2----2----2------------2----2----2----2----|

--0----0----0----0------------0----0----0----0----|





And dotted beats.

--------------------------------------------------|

--------------------------------------------------|

--------------------------------------------------|

--------------------------------------------------|

--2----2----2----2------------2----2----2----2----|

--2----2----2----2------------2----2----2----2----|

-.0---.0---.0---.0-----------.0---.0---.0---.0----|





Pre verse



Pre chorus



Chorus



Intro





Done.



















Del dette innlegget


Lenke til innlegg
Del på andre sider

Opprett en konto eller logg inn for å kommentere

Du må være et medlem for å kunne skrive en kommentar

Opprett konto

Det er enkelt å melde seg inn for å starte en ny konto!

Start en konto

Logg inn

Har du allerede en konto? Logg inn her.

Logg inn nå

  • Hvem er aktive   0 medlemmer

    Ingen innloggede medlemmer aktive

×
×
  • Opprett ny...

Viktig informasjon

Dette nettstedet bruker cookies for å gi deg en best mulig brukeropplevelse Bruksvilkår.