Gå til innhold
schpangen

Dont cry tabs

Anbefalte innlegg

Ok, jeg merket at det var en etterspørsel av at folk la ut egne tabs uten forespørsel, så da tenkte jeg "hvorfor ikke". Bare artig å få respons på arbeidet. Denne har jeg jobbet med i hele kveld, og det er også første gang jeg taber ut noe på egen hånd. :oops: bortsett fra småsanger og slik. Men jeg har hørt gjennom sangen hundrevis av ganger, og sammenliknet med andre tabs, så jeg tror det skal være ganske bra...

Desverre står innstruksjonene på engelsk, siden jeg sendte den inn til ultimate-guitar.com. Engelsken min er vel ikke helt stø heller, så forstå det den som kan:

Okey, this is the first time I work out some tabs, so I’m not sure that it’s 100% correct. But I have been listening again and agian on the track, and I have compared with other tabs. To make it as easy as possible, I will sett Izzy in front of the lines Izzy plays, Slash in front of the lines Slash plays, I will name the different lines for fig., fig.2..., and a song order list at the bottom of the tabs. Please mail me at zippo2045 if you want to make any questions about the tabs or give me some response to it.

Enjoy!

TUNING: Eb Ab Db Gb Bb Eb

INTRO:

Fig.1

Am Dm G5 C

Eb|----------0------------1----------------3-------------------------------

Bb|-----------1----------3-3----------------3------------------------------

Gb|--------2----2------2-----2----------0----0------------0-------0-------

Db|------2---------2-0----------0------0-----------------0-------0--------

Ab|----0------------------------------------------0-----3-------2-----3-2-0--

Eb|-3------------------------------3---------------------------------------

To play the intro, play fig.1 once, and then fig.3 once

Slash:

Fig.2

Eb|------------------------------------------------------------------------

Bb|------------------------------------------------------------------------

Gb|-----------------------------------2b4----------------------------------

Db|------------------------------------------------------------------------

Ab|------------------------------------------------------------------------

Eb|------------------------------------------------------------------------

Slash starts to play at C chord , and keeps the bend to the end of the intro

IZZY:

Fig 3

Am Dm G5

Eb|-------0-------------1--------------------------------------------------

Bb|---------1---------3---3------------3------------------------------------

Gb|-----2-----2-----2-------2--------0--------------------------------------

Db|---2---------2-0-----------0----0---------------2------------------------

Ab|-0----------------------------------------------0------------------------

Eb|------------------------------3----------2-3-4---------------------------

Vers: Izzy plays the same as he did at the intro, but i’ll write it donw anyway, so you can compare with what Slash plays. The vers contanes the lines played 4 times.

Izzy

Am Dm G5 C

Eb|----------0------------1----------------3-------------------------------

Bb|-----------1----------3-3----------------3------------------------------

Gb|--------2----2------2-----2-----------0----0------------0-------0-------

Db|------2---------2-0----------0-------0-----------------0-------0--------

Ab|----0----------------------------2-------------0---3-------2-----3-2-0--

Eb|-------------------------------3----------------------------------------

Fig.4

Slash

Am Dm G5

Eb|----------0------------1---------------3--------------------------------

Bb|-----------1------------3---------------3-------------------------------

Gb|-------------2-----------2----------------0-------------0-----0---------

Db|---------------2-0--------0----------------------------0-----0----------

Ab|---0----------------------------------------0--------3------2---3-2-0---

Eb|-------------------------------3----------------------------------------

Lyrics for vers 1:

Fig.1 + fig.4 Talk to me softly. There's something in your eyes.

------||----- Don't hang your head in sorrow. And please don't cry.

------||----- I know how you feel inside. I've been there before.

------||----- Somethin's changin' inside you. And don't you know.

CHORUS:

IZZY: Let’s call this Figg.5 part.1,2,3,4,5, ect

Fig.5 part 1

F G5 Am

Eb|-1----1--------3----3-----------0---------------------------------------

Bb|-1----1--------3----3-----------1---------------------------------------

Gb|-2----2--------0----0-----------2---------------------------------------

Db|-3----3--------0----0-----------2---------------------------------------

Ab|-3----3--------2----2-----------0---------------------------------------

Eb|-1----1--------3----3---------------------------------------------------

Don’t you cry tonight I still love you babe

SLASH:

Fig.5.part 2

F G5 Am

Eb|-1----1--------3--------------------------0-----------------------------

Bb|-1----1--------3----------3----------0h1----1------0h1------------------

Gb|-2----2--------0-------0--3--------2----------2--------2-0--------------

Db|-3----3--------0-----0-----------2--------------2-----------------------

Ab|-3-------------2---------------o----------------------------------------

Eb|-1-------------3---3----------------------------------------------------

Don’t you cry tonight I still love you babe

IZZY:

Fig.5 part 3

F Am

Eb|-1---1--1--1--1------------|------0--0--0-------------------------------

Bb|-1---1--1--1--1------------|------1--1--1----3--3--3-------1------------

Gb|-2---2--2--2--2-------0----|------2--2--2----2--2--2-------2------------

Db|-3---3--3--3--3---0------0-|------2--2--2----2--2--2-------2------------

Ab|-3-------------------------|---0--0--0--0-------------------------------

Eb|-1-------------------------|--------------------------------------------

Don't you cry tonight.

SLASH

Fig.5 part 4

F G Am

Eb|-------1-------------------|--------------------------------------------

Bb|-----1---------------3-----|-------0h1---1--3/5----53--1-3-1-----------

Gb|---2------0-2------0---0---|-----2----------------------------2-0-------

Db|-3-------------------------|-----------2--------------------------2-----

Ab|-----------------2---------|---0----------------------------------------

Eb|---------------------------|--------------------------------------------

Don't you cry tonight.

IZZY:

Fig.5 part 5

F G5 C Am G5

Eb|-1---1--1--1---3---3-------|---0---------3----0--0--------------3-------

Bb|-1---1--1--1---3---3-------|---1----1------1--1-------1-------1---------

Gb|-2---2--2--2---0---0-------|---0--0-----------2-----2----0--0-----------

Db|-3---3--3--3---0---0-------|---2--------------2-------------------------

Ab|---------------2---2-------|---3--------------0-------------------------

Eb|---------------3---3-------|-----------------------------3-------------

Don't you cry tonight. There's a heaven above you baby

SLASH:

Fig.5 part 6

F G C G/B Am G

Eb|-------------------------------|---------------------------------------

Bb|-----1---0------------3--------|--------1-------1-------1--------------

Gb|---2---2-----2--0-------0---0--|------0-------0-------2---------0------

Db|-3-----------3-----------------|----2-------0-------2---------0--------

Ab|------------------2-------2----|--3-------2-------0---------2----------

Eb|-------------------------------|--------------------------3------------

Don't you cry tonight. There's a heaven above you baby

IZZY:

Fig.5 part 7

F G5 Am

Eb|-1--------1----3--3--3---------|--0-------------------------------------

Bb|-1--------1----3--3--3---------|--1-------0-1---------------------------

Gb|-2--------2----0---------------|--2-----2-------2-----------------------

Db|-3---3----3----0---------------|--2---2-------2-------------------------

Ab|-3-------------2--------2--0---|--0-------------------------------------

Eb|-1-------------3---------------|----------------------------------------

And don't you cry tonight

SLASH:

Fig.5 part 8

F G5 Am

Eb|-1-------------3--3--3---------|--0-------------------------------------

Bb|-1-------1-----3--3--3---------|--1-------------------------------------

Gb|-2---0-2---0---0---------------|--2-------------------------------------

Db|-3-------------0---------------|--2-------------------------------------

Ab|-3-------------2--------2--0---|--0-------------------------------------

Eb|-1-------------3---------------|----------------------------------------

And don't you cry tonight.

And then comes vers 2 and the chorus agian, with the same tabs, exept from fig.5 part 4. That is played slightly different, bot I don’t know how....

Solo:

SLASH:

Eb|------------------------------------------------------------------------

Bb|----------------------------8-------------8-8---------------------------

Gb|-------7b9p5h7----7b9p5h7--------7b9p5h9-------7-5----------------------

Db|---7b----------------------------------------------7-5------------------

Ab|-------------------------------------------------------7-5--------------

Eb|------------------------------------------------------------------------

Eb|------------------------------------------------------------------------

Bb|----------------------------------------13b15---13----------------------

Gb|----------------------------------12-14------------14-12----------------

Db|--5/7-7/9-9/10-----------10-12-14----------------------14p13h14p13p12-

Ab|--3/5-5/7-7/8----8-10-12------------------------------------------------

Eb|------------------------------------------------------------------------

Eb|----------------------------------------------15-15-15-----------15-15------

Bb|---------------------------------------12-15----------15--13-15-------13p12

Gb|----------------------------------------------------------------------

Db|13p12—12h13---------10b12---------------------------------------------

Ab|-----------------12p10--------10h12--------------------------------------

Eb|-----------------------------------------------------------------------

Eb|--------------------------------13----------------------------------------8-5

Bb|--------12-15-13-12-13-------------13—15b17--15b17p13--8b10-----

Gb|-----13-----------------13----------------------------------------------

Db|--14----------------------14-------------------------------------------

Ab|-----------------------------------------------------------------------

Eb|-----------------------------------------------------------------------

Eb|------------------------------------------------------------------------

Bb|-8-5----------------------------------------------------------------------

Gb|-------7b9rp5-----7v------------------------------------------------------

Db|------------------------------------------------------------------------

Ab|------------------------------------------------------------------------

Eb|------------------------------------------------------------------------

While SLASH plays this, IZZY plays these cords: A5 D5 F5 G5

Vers 3:

Instead of playing Am-Dm-G5-C, Izzy plays Dm-G5-C-Am.

Slash plays this:

Fig.6

Eb|------------------------------------------------------------------------

Bb|---------------------19b21r---19b21r-----------------------------------

Gb|---------------------------------------------------------------------

Db|------------------------------------------------------------------------

Ab|------------------------------------------------------------------------

Eb|------------------------------------------------------------------------

And please remember that I never lied.....

And after this, Slash plays the same as Izzy....

OUTRO SOLO/ LAST CHORUS:

Slash plays what I have written in the tablutar, and Izzy plays the chords over...

Fig.7

Am F G5

Eb|------------------------------------------------------------------------

Bb|------------------------------------------------------------------------

Gb|------------------------------19b21-19b21-19b21-19b21rb17-----19-17

Db|--------------------------------------------------------------------19--

Ab|------------------------------------------------------------------------

Eb|------------------------------------------------------------------------

And dont you cry tonight

Am F G5

Eb|------------------------------------------------------------------------

Bb|------------------------------------------------------------------------

Gb|---------------------20b22—20b22-20b22---17-19----------19-17-17-19-

Db|-----------------------------------------------17-----------------------

Ab|------------------------------------------------------------------------

Eb|------------------------------------------------------------------------

Dont you cry tonight

C5 B5 A5 G5 F5 G5

Eb|------------------------------------------------------------------------

Bb|------------------------------------------------------------------------

Gb|------------------------19b21—19v---16b17--16--------14—14v--

Db|------------------------------------------------------------------------

Ab|------------------------------------------------------------------------

Eb|------------------------------------------------------------------------

And dont you cry tonight-------------There’s a heaven above you babe

Eb|------------------------------------------------------------------------

Bb|------------------------------------------------------------------------

Gb|------14vvvvvvvv--------------------------------------------------------

Db|------------------------------------------------------------------------

Ab|------------------------------------------------------------------------

Eb|------------------------------------------------------------------------

And dont you cry----------Dont you ever cry------ Dont you cry tonight

Eb|------------------------------------------------------------------------

Bb|------------------------------------------------------------------------

Gb|------------------------------------------------------------------------

Db|2--2--2--2--2--2--2--2-----3--3--3--3---3--3--3------3------------

Ab|2--2--2--2--2--2--2--2-----3--3--3--3---3--3--3------3-------------

Eb|------------------------------1--1--1--1---1--1--1------1-------------

Babe----------------------maybe----------------someday

G5 F5 G5 F5 G5 C5

Eb|--------------------------------------------13-15b17-15----------------

Bb|------------------12h13----------15b--15-----------------15b17br13-----

Gb|-------------------------14v--------------------------------------------

Db|------------------------------------------------------------------------

Ab|------------------------------------------------------------------------

Eb|------------------------------------------------------------------------

And dont you cry--------Dont you ever cry--------dont you cry tonight

Song Order:------------Izzy---------------Slash---------------------------------

--------------------------------------------------------------------------------------

INTRO:-----------------Fig.1---x1---------Fig.2-------x1---------

---------------------------Fig.3---x1---------Fig.2-------x1-----------------------

--------------------------------------------------------------------------------------

Vers 1:-----------------Fig.1---x4---------Fig.4-------x4-----------------------------------------------------------------------------------------------

--------------------------------------------------------------------------------------

Chours:-----------------Fig.5-part-1 x1-----Fig.5 part 2--x1----

---------------------------Fig.5 part 3 x1-----Fig.5 part 4--x1-------------------

---------------------------Fig.5 part 5 x1-----Fig.5 part 6--x1-------------------

---------------------------Fig.5 part 7 x1-----Fig.5 part 8--x1-------------------

-------------------------------------------------------------------------------------

Vers 2:------------------Fig.1 x4-------------Fig.4---------x4---------

-------------------------------------------------------------------------------------

-------------------------------------------------------------------------------------

Chorus: ----------------Fig.5 part 1 x1-----Fig.5 part 2 x1-----

---------------------------Fig.5 part 3 x1----????????????????-------------------

---------------------------Fig.5 part 5 x1-----Fig.5 part 6 x1--------------------

--------------------------Fig.5 part 7 x1-----Fig.5 part 8 x1-------------------------------------------------------------------------------------------------------------------------------------------------------------------------------------------------

SOLO: -----------------------Chords--------------Solo--------------------------------------------------------------------------------------------------------------------------------------------------------------------------------------------------------------------------------------------------------------------------------------------------------------------------------------------------------------------

Vers 3: ----------------------Chords------x4----fig.6 x1---------

--------------------------------------------------------Chordsx3---------------------------------------------------------------------------------------------------------------------------------------------------------------------------------------------------------------------------------------------------------------------------------------------------------------------------------------------------------------

OUTRO -------------------------------------------------------------------------

SOLO/------------------------------------------------------------------------------

Last --------------------------------------------------------------------------------

chorus:-------------------Fig.7 (chords)x1----Fig.7(tabs)----x1--------------------

Del dette innlegget


Lenke til innlegg
Del på andre sider

nice:)

Et spørsmål:

"TUNING: Eb Ab Db Gb Bb Eb"

hva menes med det?:P

Er det bare grepene?

:P

Del dette innlegget


Lenke til innlegg
Del på andre sider

Det betyr, så vidt jeg vet, at alle strengene er stemt ned en halvtone.

Del dette innlegget


Lenke til innlegg
Del på andre sider

ja, riktig det...fikk opplyst at man skulle skrive det foran hvis man skrev på engelsk.

Del dette innlegget


Lenke til innlegg
Del på andre sider

Ikke for å klage eller noe sant, men er det ikke litt kulere å tabbe sanger ingen har tabbet før?

Del dette innlegget


Lenke til innlegg
Del på andre sider

Det var bare fordi noen klagde på at det ble lagt ut for få tabs uten forespørsel, så da vaglte jeg jo bare denne...enkelt og greit.

Dessuten, når jeg aldri har tabbet ut en hel sang før, må jeg kunne staarte med en enkel sang...

Del dette innlegget


Lenke til innlegg
Del på andre sider

Opprett en konto eller logg inn for å kommentere

Du må være et medlem for å kunne skrive en kommentar

Opprett konto

Det er enkelt å melde seg inn for å starte en ny konto!

Start en konto

Logg inn

Har du allerede en konto? Logg inn her.

Logg inn nå

  • Hvem er aktive   0 medlemmer

    Ingen innloggede medlemmer aktive

×
×
  • Opprett ny...

Viktig informasjon

Dette nettstedet bruker cookies for å gi deg en best mulig brukeropplevelse Bruksvilkår.