Web Analytics
Jump to content

Merkelige akkorder


Knopfler-fan
 Share

Recommended Posts

  • Replies 41
  • Created
  • Last Reply

Top Posters In This Topic

Først Am7-5 i tre versjoner, husk at den tredje er uten grunntone, så du trenger en pianist eller bassist hvis du bruker den.

-----0--------5------6------ E

-----1--------8------8------ H/B

-----0--------5------5------- G

-----1--------7-------------- D

-----0--------6-------------- A

---------------5------------- E

Skal skjekke om jeg finner en nogenlunde spillbar versjon av den andre, vil sansynligvis komme snart

Link to comment
Share on other sites

En bedre versjon av Am7 -5 er som følger:

----------------------------- E

--------------4-------------- H/B

--------------5-------------- G

--------------5-------------- D

----------------------------- A

--------------5-------------- E

pekefinger på den dyperste E strengern, A strenger dempes uten å spilels på, ringfinger på D strengen og pekefinger på H/B strengen. Lyse E streng skal også dempes.

D7-9+5

--------------6-------------- E

--------------4-------------- H/B

--------------5-------------- G

--------------4-------------- D

--------------5-------------- A

------------------------------ E

Dyp E-streng dempes med tommel, A strengen med med langfinger, D strengen med pekefiner, G strengen med ringfinger og tynne E strengen med lillefinger

dette er typiske "jazz" korter som leder til hverandre

Link to comment
Share on other sites

Her er den, men igjen mangler denne grunntonen

----2--------------------------------- E

----1--------------------------------- H

----3--------------------------------- G

----1--------------------------------- D

-------------------------------------- A

-------------------------------------- E

Link to comment
Share on other sites

En bedre versjon av Am7 -5 er som følger:

----------------------------- E  

--------------4-------------- H/B  

--------------5-------------- G  

--------------5-------------- D  

----------------------------- A  

--------------5-------------- E  

pekefinger på den dyperste E strengern,

Det må da være mye enklere å spille grunntonen med tommelen?

Jeg skrev visst feil er. Du har rett, det er enklere med tommelen på E streng, dempet A streng, langefinger på D streng og pekefinger på H streng. Dempet tynn E streng

Link to comment
Share on other sites

Ok, den gyldne regel:

Tell i skalanoter opp fra grunntonen med grunntonen som nummer 1. Da kan du fort telle deg frem til niere, firere og femtenere, og minus eller plus foran tallet er da seff senket eller hevet en halv tone

Og, det heter "sus" innenfor den første oktaven og add etter oktaven. F. eks. sus4 og add9

Link to comment
Share on other sites

Create an account or sign in to comment

You need to be a member in order to leave a comment

Create an account

Sign up for a new account in our community. It's easy!

Register a new account

Sign in

Already have an account? Sign in here.

Sign In Now
 Share

  • Recently Browsing   0 members

    No registered users viewing this page.


×
×
  • Create New...

Important Information

By using this site, you agree to our Terms of Use.