Web Analytics
Jump to content

Smak av honning


Recommended Posts

Hei, har prøvd å lære meg Smak av honning - De Lillos, og fant tabs på ultimate guitar.

Men det er noen deler jeg ikke klarer å få til å stemme.

Første del:

A Bm D E

å ligge på et svaberg og bare være til

A Bm D E

Og kjenne solen varme i en luft som er så mild

D C#7 F#m B7 E F#m7 Em-5/G E/G#

Det er hva jeg kaller en smak av honning

Sliter med å få delen som jeg har merket rødt til å stemme..

Noen som har et bedre/lettere alternativ?

Grepene:

A Bm E7 A7 D F#m Dm E E/D E/C# E/B C#7 B7 F#m7 Em-5/G E/G#

E--0--2--0--0--2--2---1--0--0---0----0---x--2---x-----x-----0-|

H--2--3--0--2--3--2---3--0--0---0----0---2--0---x-----x-----0-|

G--2--4--1--0--2--2---2--1--1---1----1---4--2---2-----3-----4-|

D--2--4--0--2--0--4---0--2--0---2----2---3--1---2-----2-----2-|

A--0--2--3--0--x--4---x--2--x---4----2---4--2---x-----x-----x-|

E--x--x--0--x--x--2---x--0--x---x----x---x--x---2-----3-----2-|

Fdim Ebm7-5 Dmaj7 Abm7-5 Amaj7

E--4-----x------5-----7------0-|

H--3-----7------7-----7------2-|

G--4-----6------6-----7------1-|

D--3-----7------7-----6------2-|

A--x-----6------5-----x------0-|

E--x-----x------x-----x------x-|

Edited by Tokeir
Link to comment
Share on other sites

Create an account or sign in to comment

You need to be a member in order to leave a comment

Create an account

Sign up for a new account in our community. It's easy!

Register a new account

Sign in

Already have an account? Sign in here.

Sign In Now
 Share

  • Recently Browsing   0 members

    No registered users viewing this page.

×
×
  • Create New...

Important Information

By using this site, you agree to our Terms of Use.