Gå til innhold
Espenaa

Bjørn eidsvåg

Anbefalte innlegg

Noen som vet hvor man finner tab til Eg er bare en mann av Bjørn E?

har sett på Powertabs og mysongbook ++ noen andre steder

Del dette innlegget


Lenke til innlegg
Del på andre sider

Vet ikke helt.. tror egentlig du må kjøpe noteboka hans.. tror ikke det er så mange norske artister som synger på norsk som blir lagt ut på nettet.. bortsett fra NÅlga, da.. men det er vel nede!?

Anbefaler deg heller å kjøpe noteboka til det nye albumet til 160 kr. ellerno..=)

Del dette innlegget


Lenke til innlegg
Del på andre sider

Det er vel bare akkorder?

Edit:

---0-----3-----0---- 2----------------------------------

---0-----0-----0---- 0-------------------------------------

---0-----0-----0---- 2--------------------------------------

---2-----0-----2-----1--------------------------------------

---2-----2-----3-----2--------------------------------------

---0-----3------------------------------------------------

----0---0----0----3-------------------------------------------

----0---0----2----2--------------------------------------------

----0---0----2----3-----------------------------------------

----2---2----2----0------------------------------------------

----2---2----0------------------------------------------------

----0---0-------------------------------------------------

Mener det var noe sånt, vel veeeeeldig lenge siden jeg spilte den!

Del dette innlegget


Lenke til innlegg
Del på andre sider

ahh.. stemmer.. sorry.. glemte det helt bort..:P

Notebøker er vel greie til å finne ut og lage tab selv av også, da..;P

*ro ro ro* :mrgreen:

Del dette innlegget


Lenke til innlegg
Del på andre sider

jeg har nålga-arkivet, det er noen sanger der.

Den nye cantando notepakken innehold et hefte med 12 bjørn eidsvåg sanger. Kan se om jeg finner den der.

Viste ikke at du hørte på Bjørn Eidsvåg, Espen..

Del dette innlegget


Lenke til innlegg
Del på andre sider

Har den i papirformat, kan se om jeg får skrevet den inn på PC'en i morra

Del dette innlegget


Lenke til innlegg
Del på andre sider

Opprett en konto eller logg inn for å kommentere

Du må være et medlem for å kunne skrive en kommentar

Opprett konto

Det er enkelt å melde seg inn for å starte en ny konto!

Start en konto

Logg inn

Har du allerede en konto? Logg inn her.

Logg inn nå

  • Hvem er aktive   0 medlemmer

    Ingen innloggede medlemmer aktive

×
×
  • Opprett ny...

Viktig informasjon

Dette nettstedet bruker cookies for å gi deg en best mulig brukeropplevelse Bruksvilkår.