Gå til innhold
Slash T

Backstreet Girls

Anbefalte innlegg

Jeg trenger noen gode tabs av diverse backstreet girls låter.

Noen som har noe de kan oppdrive?

Hvis ikke, vet dere om det finnes noen tab-bok av dem?

Del dette innlegget


Lenke til innlegg
Del på andre sider

jeg kan noen få sanger... skal se om jeg gidder å skrive ned noen tabs.... noen spess sang du trenger??

Del dette innlegget


Lenke til innlegg
Del på andre sider

Sitter å hører på black boogie death rock N roll albumet nå. Kan du noen på det albumet?

Mest interessert i diverse smålicks som de bruker. :D

Del dette innlegget


Lenke til innlegg
Del på andre sider

Er så kjip at jeg henter opp en eldgammel tråd.

Noen som har noen tabs, hele låter eller noen av de kule licksa de bruker? Klarer ikke finne noe på weben.

Del dette innlegget


Lenke til innlegg
Del på andre sider

Ta den med et par klyper salt.........


Hangover In hamburg


INTRORIFF:

4x------------------------------------------
--------------------------------------------
--------------------------------------------
--------------------------3--4--5-5-7-5-5---
----3--4--5-5-7-5-5----0--1--2--3-3-3-3-3---
-0--1--2--3-3-3-3-3-------------------------

--------------------------
--------------------------
--------------------------
--------------------------
----3--4--5-5-7-5-5-7-5-7-
-0--1--2--3-3-3-3-3-3-3-3-

REFRENG:

Hæængåverin-hææææææmmmburg
---------------------------
---------------------------
---------------------------
---------------------------
-5-5-5-5-5-5-3-3-3-3-3-3-3-
-3-3-3-3-3-3-1-1-1-1-1-1-1-


Hæængåverin-hææææææmmmburg
---------------------------
---------------------------
---------------------------
-5-5-5-5-5-5-7-7-7-7-7-7-7-
-3-3-3-3-3-3-5-5-5-5-5-5-5-
---------------------------

Del dette innlegget


Lenke til innlegg
Del på andre sider

BUMP:p

kan noen hjelpe meg med tab på The Hunt?

på forhånd takk!

Del dette innlegget


Lenke til innlegg
Del på andre sider

Opprett en konto eller logg inn for å kommentere

Du må være et medlem for å kunne skrive en kommentar

Opprett konto

Det er enkelt å melde seg inn for å starte en ny konto!

Start en konto

Logg inn

Har du allerede en konto? Logg inn her.

Logg inn nå

  • Hvem er aktive   0 medlemmer

    Ingen innloggede medlemmer aktive

×
×
  • Opprett ny...

Viktig informasjon

Dette nettstedet bruker cookies for å gi deg en best mulig brukeropplevelse Bruksvilkår.